Itchyworms Salapi Ukulele

TabCrawler.ComI / Itchyworms / Salapi Ukulele log in ] [ register ]
TABCRAWLER Online Sheet Music & Lyrics Archive Member Votes: 0 / 5(0 votes)
TAB VIEWS for salapi ukulele chords: 19

To to be able to download PDF tabs, rate, comment & submit guitar tabs, bass tabs, keyboard tab, lyrics and drum tab files you must LOGIN TO TABCRAWLER Online Guitar Tabs & Guitar Pro, Bass Tab, Drum Tabs Archive MEMBERS ONLY AREA.
[PRINT]
Did this chords for salapi ukulele help you?
You must LOGIN to rate this chords.
Help us improve the tab & lyrics archive!

Salapi Ukulele by Itchyworms

Title: Salapi
Artist: Itchyworms
Tabbed by: Levy Aleman (levyshady@myway.com)

Para to sa mga ng-gigitara jan sa Palm Grove Village
lalo na jan sa mga tambay ng ClubHouse..rakrakan na!

Intro:
e|------------------|	  e|------------------------------------------------------------  
B|5-5-5710-7-5-7-2|	  B|5-5-5710-7-5-7-2-2----------------------------------------
G|4-4-469--6-4-6-2| 2x  G|4-4-469--6-4-6-2-2---5-5-5-5---------4-4-4-4-5-5-5-5--8---
D|------------------|	  D|-------------------------------7-7-7-7----------------------
A|------------------|	  A|------------------------------------------------------------
E|------------------|	  E|------------------------------------------------------------

[Bagsakan]
e|------------
B|------------
G|------------
D|9--9-789-- 4x
A|9--9-789--
E|7--7-567--


Verse 1:
G  E5  D    A5 B5
Sa mun-dong bi-tin [Bagsakan]
G   E5  D    A5 D
may lib-rong i- tim [Bagsakan]
					  	    A1	    A2	    A3
Chorus:						e|-----  |-----  |-----
A1						B|-----  |-----  |-----
Di malaman-laman ang sanhi			G|--2--  |--2--  |--2--
A2						D|--2--  |--3--  |--4--
Di makita-kita ang ngiti			A|-----  |-----  |-----
A3                  F5      			E|-----  |-----  |-----
Pahingi nman ako ng konting salapi [Bagsakan]

Verse 2:(Pareho lang ng Verse 1)

May mga kabit

At malulupit      
		e|-------------------------------------------------------------------------------------|
     Lead In	B|-10h12p10h12-15p12--10h12p10h12-15p12--10h12p10h12-15p12--10h12p10h12-15p12-12p10~~--|
  		G|-------------------------------------------------------------------------------------|
		D|-------------------------------------------------------------------------------------|
		A|-------------------------------------------------------------------------------------|
		E|-------------------------------------------------------------------------------------|

[Chorus]

[Adlib]
  -Palm Mute-
e|--------------------------------------------|
B|--------------------------------------------|
G|--------------------------------------------| 8x
D|-----------9---------11---------9-----------|
A|-8-9-10-11---11-10-9----9-10-11---11-10-9---|
E|--------------------------------------------|

e|----------------------------------------------------|
B|----------------------------------------------------|
G|----------8--------10--------8-7-6-5-4------9--7----|
D|-7-8-9-10---10-9-8----8-9-10----------------x--x----|
A|--------------------------------------------7--5----|
E|----------------------------------------------------|

Solo:
e|------------------------------------------------------------------------------------------------|
B|-17b(18)-14h15-17-15-17-------------------------------------------------------------------------|
G|------------------------16----------------------------------------------------------------------|
D|-----------------------------11h12-14-12-14-12b--14-12-14-12-14-14b--14-14-14-14-14b--11h12-14--|
A|------------------------------------------------------------------------------------------------|
E|------------------------------------------------------------------------------------------------|

e|------------------------------------------------------------------------------------------------|
B|------------------------------------------------------------------------------------------------|
G|------------------------------9-9-9-9-9-----7-9b-9-9-9-9/-9-9-9-9-9-----7-9b-9-9-9--9h7---9p7b--|
D|-----14-------12----1214-14--9-9-9-9-9--9---------------9-9-9-9-9--9-----------------9-------|
A|-14----12h14----14-----------------------------------------------------------------------------|
E|------------------------------------------------------------------------------------------------|

e|------------1112-12-12-------10----------------------------------------------|
B|------------------------10h12----12p11p10-9-10b---8b-----------------810~~---|
G|-9-9-9-----------------------------------------------9p7-9h7-----7h9----------|
D|-9-9-9--4-5--------------------------------------------------7h9--------------|
A|-7-7-7------------------------------------------------------------------------|
E|------------------------------------------------------------------------------|

[Chorus]

Verse 3: (same as verse 1&2)

Ang puting asin

Di pinapansin

[Chorus]

Outro:
e|------------------------------------------------------------------------------------------------------
B|------------------------------------------------------------------------------------------------------
G|------------------------------------------------------------------------------------------------------
D|9--9-789--9--9-789-9--------9--9-789--------9-7-9--------9-7-9--------9-7--------9-7--------9---
A|9--9-789--9--9-789-9-pause--9--9-789-pause--9-7-9-pause--9-7-9-pause--9-7-pause--9-7-pause--9---
E|7--7-567--7--7-567-7--------7--7-567--------7-5-7--------7-5-7--------7-5--------7-5--------7---

TAB AND LYRICS COMMENTS:

There is no comments for the salapi ukulele chords sheet music yet. Please post one now!

© 2018 TabCrawler Online Guitar Tab and Music Lessons Archive