We Stole The Sun Hey Dear

TabCrawler.ComW / We Stole The Sun / Hey Dear log in ] [ register ]
TABCRAWLER Online Sheet Music & Lyrics Archive Member Votes: 0 / 5(0 votes)
TAB VIEWS for hey dear chords: 27

To to be able to download PDF tabs, rate, comment & submit guitar tabs, bass tabs, keyboard tab, lyrics and drum tab files you must LOGIN TO TABCRAWLER Online Guitar Tabs & Guitar Pro, Bass Tab, Drum Tabs Archive MEMBERS ONLY AREA.
[PRINT]
Did this chords for hey dear help you?
You must LOGIN to rate this chords.
Help us improve the tab & lyrics archive!

Hey Dear by We Stole The Sun

Hey Dear by We Stole The Sun

Song by a new Auckland duet just listened to it to figure out the chords improvements welcome œ
View band here: www.westolethesun.bandcamp.com/album/we-stole-the-sun

Bm         D                    G                      D
I apologise from the bottom of my weathered soul
        G                       D                    A
That I could never give enough away
         Bm                    D           G                      D
And as I close my eyes and wait for you to leave me here
         G                 D                      A
Just hear me out before you walk away

         F#m                             Bm              A
And pardon me for all the painful interjections but...

  D                       Bm
Hey, dear
                                       G
We can't all have your heart
                          D        A
We've all got to start somewhere
D                          Bm
Hey, dear
                               G
Don't let it turn you cold
                                             D             A           
      Bm
'Cause all that you've been told will be here will come

Bm               D                   G              D
If you give it time, just a little bit for us to find
G              D                            A
Acres and acres of common ground
Bm                                   D                  G     
                 D
Well I know that if you'd look, you'd see that I'm an open

book
            G                                D                    A
It's just in this world I don't know my way around

         F#m                             Bm             A
And pardon me for all the painful interruptions but...

  D                       Bm
Hey, dear
                                       G
We can't all have your heart
                          D        A
We've all got to start somewhere
D                          Bm
Hey, dear
                               G
Don't let it turn you cold
                                             D             A           
      Bm
'Cause all that you've been told will be here will come

e |-----------------------------------------------------------------------|
B |-------3---2-0-------0-------------------------------------------------|
G |------------------2----------------2-2--/4-----------------------------|
D |---------------------------4------------------4-5----------------------|
A |-----------------------------------------------------------------------|
E |-----------------------------------------------------------------------|

e |------------------------------------------------------------------------|
B |------------------------------------------------------------------------|
G |------------------------------------------------------------------------|
D |------0-----2--4-------/5/4------0-----/2-------------------------------|
A |------------------------------------------------------------------------|
E |------------------------------------------------------------------------|


e |-----------------------------------------------------------------------|
B |-----------3--2-0------0-----------------------------------------------|
G |--------------------2--------------------2----/4-----------------------|
D |------4----------------------4---------------------4-5-----------------|
A |-----------------------------------------------------------------------|
E |-----------------------------------------------------------------------|

e |-----------------------------------------------------------------------|
B |-----------------------------------------------------------------------|
G |-----------------------------------------------------------------------|
D |-------0----2---4-----/5/4-----0-----/2--------------------------------|
A |-----------------------------------------------------------------------|
E |-----------------------------------------------------------------------|


(*one strum each chord*)

D*                    Bm*
Hey, dear
                                    G*                A*
You know that it gets easier...


(Plucking pattern T I M I)

 D                       Bm
Hey, dear
                                       G
We can't all have your heart
                          D        A
We've all got to start somewhere
D                          Bm
Hey, dear
                               G
Don't let it turn you cold
                                             D             A                D
'Cause all that you've been told will be here will come

TAB AND LYRICS COMMENTS:

There is no comments for the hey dear chords sheet music yet. Please post one now!

© 2015 TabCrawler Online Sheet Music Tablature Archive