Noel Cabangon Kahit Maputi Na Ang Buhok Ko (ver 3)

TabCrawler.ComN / Noel Cabangon / Kahit Maputi Na Ang Buhok Ko (ver 3) log in ] [ register ]
TABCRAWLER Online Sheet Music & Lyrics Archive Member Votes: 0 / 5(0 votes)
TAB VIEWS for kahit maputi na ang buhok ko (ver 3) chords: 60

To to be able to download PDF tabs, rate, comment & submit guitar tabs, bass tabs, keyboard tab, lyrics and drum tab files you must LOGIN TO TABCRAWLER Online Guitar Tabs & Guitar Pro, Bass Tab, Drum Tabs Archive MEMBERS ONLY AREA.
[PRINT]
Did this chords for kahit maputi na ang buhok ko (ver 3) help you?
You must LOGIN to rate this chords.
Help us improve the tab & lyrics archive!

Kahit Maputi Na Ang Buhok Ko (ver 3) by Noel Cabangon

INTRO:

-----------5------7-7h9-7--5-7-5--|-----------5------7-|
-9---------5------7-7------5------|-9---------5------7-|
-9-----------6/8------------------|-9-----------6/8----|
----9-(tap)-----------------------|----9-(tap)---------|
----------------------------------|--------------------|
-0---------0---------------0------|-0---------0--------|




VERSE 1:
                     E
Kung tayo ay matanda na

Abm        Asus2        B9
Sana'y 'di tayo magbago

E          Abm
Kailanman, nasaan ma'y

Asus2               B9
Ito ang pangarap ko



CHORUS 1:
          Abm        Abdim7            C#m       E7
Makuha mo pa kayang ako'y hagkan at yakapin, hmm...

Asus2       B9        Abm       E7
Hanggang pagtanda natin

     Asus2               B9         Abm       E7
Nagtatanong lang sa'yo ako pa kaya'y ibigin mo

      F#m Abm A B9
Kahit maputi na ang buhok ko



-----------5------7-7h9-7--5-7-5--|-----------5------7-|
-9---------5------7-7------5------|-9---------5------7-|
-9-----------6/8------------------|-9-----------6/8----|
----9-(tap)-----------------------|----9-(tap)---------|
----------------------------------|--------------------|
-0---------0---------------0------|-0---------0--------|



VERSE 2:
             E         Abm
Pagdating ng araw ang 'yong buhok

   Asus2        B9
Ay puputi na rin

E            Abm
Sabay tayong mangangarap

    Asus2         B9
Ng nakaraan sa'tin




CHORUS 2:
       Abm    Abdim7       C#m      E7
Ang nakalipas ay ibabalik natin, hmmm...

Asus2     B9      Abm      E7
papaalala ko sa'yo

     Asus2               B9         Abm       E7
Ang aking pangako na'ng pag-ibig ko'y lagi sa'yo

      F#m Abm A B9       Bdim7 C#dim7
Kahit maputi na ang buhok ko....Ohhh


(The La-lalalala-lala part.xD)

F#   Bbm   Bsus2  C#9

Bbm  BbDim7 D#m   F#Dim7


CHORUS 2
   Bbm      Bbdim7         D#m   F#7
Ang nakalipas ay ibabalik natin, hmmm...

Bsus2     C#9       Bbm      F7
papaalala ko sa'yo

     Bsus2               C#9         Bbm       F7
Ang aking pangako na'ng pag-ibig ko'y lagi sa'yo

      Abm Bbm B C#9
Kahit maputi na ang buhok.

This is how I end the song

(Intro + E chord at the end)

-----------5------7-7h9-7--5-7-5--|-----------5------7-|
-9---------5------7-7------5------|-9---------5------7-|
-9-----------6/8------------------|-9-----------6/8----| E
----9-(tap)-----------------------|----9-(tap)---------|
----------------------------------|--------------------|
-0---------0---------------0------|-0---------0--------|

TAB AND LYRICS COMMENTS:

There is no comments for the kahit maputi na ang buhok ko (ver 3) chords sheet music yet. Please post one now!

© 2015 TabCrawler Online Sheet Music Tablature Archive