Sdp Haende Hoch

TabCrawler.ComS / Sdp / Haende Hoch log in ] [ register ]
TABCRAWLER Online Sheet Music & Lyrics Archive Member Votes: 0 / 5(0 votes)
TAB VIEWS for haende hoch chords: 153

To to be able to download PDF tabs, rate, comment & submit guitar tabs, bass tabs, keyboard tab, lyrics and drum tab files you must LOGIN TO TABCRAWLER Online Guitar Tabs & Guitar Pro, Bass Tab, Drum Tabs Archive MEMBERS ONLY AREA.
[PRINT]
Did this chords for haende hoch help you?
You must LOGIN to rate this chords.
Help us improve the tab & lyrics archive!

Haende Hoch by Sdp

Hey,
played this song on acoustic guitar.. it is mainly played with powerchords.
A few chords only sound good with powerchords.


INTRO

e|----------------------------------------------------------10-|
B|---------------------------7---7---------------3---3---------|
G|----------------------------------(4)------------4---4-------|
D|---9---------7-9-----7-9-----------5-------------------------|
A|---9-------9-------9---------------5-------------------------|
E|---7-------------------------------3-------------------------|

e|-----------------------------------------------10--10--------|
B|---------------------------7---7-----------------------------|
G|----------------------------------(4)------------------------|
D|---9---------7-9-----7-9-----------5-------------------------|
A|---9-------9-------9---------------5-------------------------|
E|---7-------------------------------3-------------------------|

REFRAIN

Hm                      A        G
Hände hoch, das ist ein Überfall
          (D)    //play D, A or nothing (decide on your own)
(Put your hands up)
Hm                                A          G
Schnallt euch an, wir fliegen mit Überschall
         (D)
(I'mma touch the sky)

Hm                      A        G
Hände hoch, das ist ein Überfall
          (D)
(Put your hands up)
Hm                                A          G
Schnallt euch an, wir fliegen mit Überschall
         (D)
(I'mma touch the sky)
Jaauu

STROPHE

Hm
Rette sich wer kann
Jungs, schlagt Alarm
Wir sind wieder da
         Hm
Die zwei Jungs aus Berlin
Kommen mit Benzin
Nitroglyzerin
    Hm
Und diese CD
Ist ein Waffensystem
Wir sind keine Band
               G
Wir wollen die Macht übernehmen
Hm
Mitten in der Stadt
Bauen wir uns 'nen Palast
Wer uns nicht passt
Kommt direkt in den Knast

Hm                      A     G
Hände hoch, das ist ein Überfall

Hm
Die NSA, die Stasi und die Gema
Wollen uns verbieten
         G
Denn wir passen nicht ins Schema

BRIDGE/PRE-CHORUS?! Don't Know :D

G                   A              Hm
Geht raus, schreibt es an die Wand
                              Hm   A
Bald regieren wir das ganze Land
G                A              Hm
Und wir haben eh alle eure Daten
D'rum hebt die Hand wie brave Soldaten

REFRAIN

Hm                      A        G
Hände hoch, das ist ein Überfall
          (D)   
(Put your hands up)
Hm                                A          G
Schnallt euch an, wir fliegen mit Überschall
         (D)
(I'mma touch the sky)

Hm                      A        G
Hände hoch, das ist ein Überfall
          (D)
(Put your hands up)
Hm                                A          G
Schnallt euch an, wir fliegen mit Überschall
         (D)
(I'mma touch the sky)

STROPHE

Hm
Vater Staat ruft den Notstand aus
                                             A
Das ist kein Atomschlag, das ist unser Applaus
G
SDP - es gibt keinen cooleren Job
                                                  A
Wir haben früher zu zweit die ganze Schule gemobbt
     Hm
Denn so eine Band hat noch keiner gesehen
                        G
Vincent und Dag - einer groß, einer schön
    Hm
Die bekannteste unbekannte Band auf dieser Welt
Gefällt mir
        G
Ist mir egal, was dir gefällt
         Hm
Denn wir ticken nicht ganz sauber
Von Freitag auf Montag
Ich schreie meine Strophe
(G)
Scheiß auf die Tonart
Hm
Wir haben uns nie angepasst
Zu keinem Zeitpunkt
Zu sagen wir sind krass
    G
Wäre eine Untertreibung

BRIDGE/PRE-CHORUS?! Don't Know :D

G                  A            Hm
Und am Tag unserer Machtübernahme
                                Hm   A
Schwenkt das ganze Land uns're Fahne
(Hm)
Und wir haben eh alle eure Daten
D'rum hebt die Hand wie brave Soldaten
Hm                              A
Und wir haben eh alle eure Daten
G                               A --> D
D'rum hebt die Hand wie brave Soldaten
Hm                              A
Und wir haben eh alle eure Daten
G                               A
D'rum hebt die Hand wie brave Soldaten

REFRAIN

Hm                      A        G
Hände hoch, das ist ein Überfall
          (D)   
(Put your hands up)
Hm                                A          G
Schnallt euch an, wir fliegen mit Überschall
         (D)
(I'mma touch the sky)

Hm                      A        G
Hände hoch, das ist ein Überfall
          (D)
(Put your hands up)
Hm                                A          G
Schnallt euch an, wir fliegen mit Überschall
         (D)
(I'mma touch the sky)


OUTRO

   Hm                    A  G                   (A)
e|-10-----------------------10---------12^10-------|
B|------12----10^12-12-----------12----------12----|
G|-------------------------------------------------|
D|-------------------------------------------------|
A|-------------------------------------------------|
E|-------------------------------------------------|

   Hm                    A  G                   (A)
e|-10-----------------------10---------12^10-------|
B|------12----10^12-12-----------12----------12----|
G|-------------------------------------------------|
D|-------------------------------------------------|
A|-------------------------------------------------|
E|-------------------------------------------------|

    Hm                                          A       G                             A
e|-----------------------------------------------------10-9--------------------------------|
B|--10^12-12--10^12-12--10^12-12--10^12-12--10^12-12--------12-10-12-10--------------------|
G|----------------------------------------------------------------------11-9-11-9----------|
D|--------------------------------------------------------------------------------12-9-----|
A|-----------------------------------------------------------------------------------------|
E|-----------------------------------------------------------------------------------------|

    Hm                               A                G   
e|--12--------------------12---------12---------------10-9----------------------------------|
B|----------------------------------------------------------12-10-12-10---------------------|
G|---------------------------------------------------------------------11-9-11-9------------|
D|-------------------------------------------------------------------------------12-9-------|
A|------------------------------------------------------------------------------------12^14-|
E|------------------------------------------------------------------------------------------|  
(Hm) 

TAB AND LYRICS COMMENTS:

There is no comments for the haende hoch chords sheet music yet. Please post one now!

© 2015 TabCrawler Online Sheet Music Tablature Archive