Veronica Maggio Låtsas Som Det Regnar (ver 3)

TabCrawler.ComV / Veronica Maggio / Låtsas Som Det Regnar (ver 3) log in ] [ register ]
TABCRAWLER Online Sheet Music & Lyrics Archive Member Votes: 0 / 5(0 votes)
TAB VIEWS for låtsas som det regnar (ver 3) chords: 85

To to be able to download PDF tabs, rate, comment & submit guitar tabs, bass tabs, keyboard tab, lyrics and drum tab files you must LOGIN TO TABCRAWLER Online Guitar Tabs & Guitar Pro, Bass Tab, Drum Tabs Archive MEMBERS ONLY AREA.
[PRINT]
Did this chords for låtsas som det regnar (ver 3) help you?
You must LOGIN to rate this chords.
Help us improve the tab & lyrics archive!

Låtsas Som Det Regnar (ver 3) by Veronica Maggio

This is the music video version.

Verse tab:

eb|-----------------|-----------------|-----------------|-----------------|
Bb|-----------------|---0---0---0---0-|---2---2---2---2-|---3---3---3---3-|
Gb|---2---2---2---2-|-----------------|-----------------|-----------------|
Db|-----------------|-----------------|-----------------|-----------------|
Ab|-----------------|-----------------|-0---0---0---0---|-2---2---2---2---|
Eb|-2---2---2---2---|-3---3---3---3---|-----------------|-----------------|
    Db/F              Gb                Ab                Bbm

eb|-----------------|-----------------|-----------------|-----------------|
Bb|-----------------|---0---0---0---0-|---2---2---2---2-|---2---2---2---2-|
Gb|---2---2---2---2-|-----------------|-----------------|-----------------|
Db|-----------------|-----------------|-----------------|-----------------|
Ab|-----------------|-----------------|-0---0---0---0---|-0---0---0---0---|
Eb|-2---2---2---2---|-3---3---3---3---|-----------------|-----------------|
    Db/F              Gb6               Ab

eb|-----------------|-----------------|-----------------|-----------------|
Bb|---3---3---3---3-|---3---3---3---3-|---3---3---3---3-|---3---3---3---3-|
Gb|---0---0---0---0-|---2---2---2---2-|---4---4---4---4-|---4---4---6---6-|
Db|-----------------|-----------------|-----------------|-----------------|
Ab|-----------------|-----------------|-----------------|-0---------------|
Eb|-0---------------|-2---------------|-3---------------|-----------------|
    Ebm7              Db/F              Gb6               Bbm/Ab    Ab

eb|-----------------|-----------------|-----------------|-----------------|
Bb|---3---3---3---3-|---3---3---3---3-|---3---3---3---3-|-----------------|
Gb|---0---0---0---0-|---2---2---2---2-|-----------------|^2---------------|
Db|-----------------|-----------------|---2---2---2---2-||2---------------|
Ab|-----------------|-----------------|-0---------------||0---------------|
Eb|-0---------------|-2---------------|-----------------|-----------------|
    Ebm7              Db/F              Ab7sus4           Ab


ORDER: I V1 PC C1 V2 PC C2 C3 FC O


[INTRO]
Db/F | Gb  | Ab | Bbm |
Db/F | Gb6 | Ab |     |


[VERSE 1] - riff 1
Db/F                 Gb
    Det har regnat i dagar
  Ab                   Bbm
    Det regnar och det slutar aldrig
Db/F                 Gb6
    Det regnar genom kragen
  Ab
    Står lutad mot en stenstaty
Ebm7            Db/F
    Ser sovande sva - nar
 G             Bbm/Ab    Ab
    Ser våta fasa   -   der
Ebm7            Db/F       Ab7sus4     Ab
    Och ödsliga parker där vi     gick runt


[PRE-CHORUS]
         n.c.           Db/Eb
   Om du visste vad det var
Fm7       Bbm
   Varför sa du inget
 Ab                           Db/Eb
   Jag tror du visste vad det var
Fm7       Bbm
   Men du sa ju inget


[CHORUS 1]
  Ab                       Gbadd9
    Du bara låtsas som det regn - ar
Db/F                  Ab
    Du låtsas som det regnar
  Ab                       Gbadd9
    Du bara låtsas som det regn - ar
Db/F                  Ab
    Du låtsas som det regnar


[VERSE 2]
Db/F           Gb
    Jag ägnade dagar
  Ab              Bbm
    Åt det som är ingenting nu
Db/F                   Gb6
    Jag bad dig att förklara
  Ab
    Jag ville ju precis som du
Ebm7          Db/F
    Se leriga å - krar
 Gb6            Bbm/Ab   Ab 
    Se tomma perrong - er
Ebm9            Db/F       Ab7sus4     Ab
    Och ödsliga parker där vi     gick runt


[PRE-CHORUS]
         n.c.           Db/Eb
   Om du visste vad det var
Fm7       Bbm
   Varför sa du inget
 Ab                           Db/Eb
   Jag tror du visste vad det var
Fm7       Bbm
   Men du sa ju inget


[CHORUS 2]
  Ab                       Gbadd9
    Du bara låtsas som det regn - ar
Db/F                  Ab
    Du låtsas som det regnar
  Ab                       Gbadd9
    Du bara låtsas som det regn - ar
Db/F                  Ab
    Du låtsas som det regnar


[CHORUS 3]
  Ab                       Gbadd9
    Du bara låtsas som det regn - ar
            Db/F
    Som det regnar
            Ab
    Som det regnar 
  Ab                       Gbadd9
    Du bara låtsas som det regn - ar
Db/F                  Ab
    Du låtsas som det regnar


[FINAL CHORUS] - vocoder
  Ab                       Gbadd9
    Du bara låtsas som det regn - ar
Db/F                  Absus4
    Du låtsas som det regn - ar
  Ab                       Gbadd9
    Du bara låtsas som det regn - ar
Db/F                  Absus4   Ab
    Du låtsas som det regn - ar


[OUTRO]
Gbadd9 | Db/F | Ab |        |
Db/F   | Gb   | Ab | Bbm    |
Db/F   | Gb6  | Ab | (hold) |

TAB AND LYRICS COMMENTS:

There is no comments for the låtsas som det regnar (ver 3) chords sheet music yet. Please post one now!

© 2015 TabCrawler Online Sheet Music Tablature Archive