Visage Fade To Grey (ver 2)

TabCrawler.ComV / Visage / Fade To Grey (ver 2) log in ] [ register ]
TABCRAWLER Online Sheet Music & Lyrics Archive Member Votes: 0 / 5(0 votes)
TAB VIEWS for fade to grey (ver 2) chords: 1158

To to be able to download PDF tabs, rate, comment & submit guitar tabs, bass tabs, keyboard tab, lyrics and drum tab files you must LOGIN TO TABCRAWLER Online Guitar Tabs & Guitar Pro, Bass Tab, Drum Tabs Archive MEMBERS ONLY AREA.
[PRINT]
Did this chords for fade to grey (ver 2) help you?
You must LOGIN to rate this chords.
Help us improve the tab & lyrics archive!

Fade To Grey (ver 2) by Visage

Song: Fade to grey
Artist: Visage
Composers: Chris Payne, Midge Ure & Billy Currie
Album: Visage
Tabbed by DJ
25th Nov 2015

Am = x02210   Dm    = xx0231   C6   = x32210
C  = x32010   Dsus2 = xx0230   Em/G = 322000
Em = 022000   F     = 133211

****************************************************

[Intro]
   (Am)
e |-------------------|-------------------| [x2]
B |-------------------|-------------------|
G |----2---2---2---2--|----2---2---2---2--|
D |-------------------|-------------------|
A |--0---0---0---0----|--0---0---0---0----|
E |-------------------|-------------------|

                           (Devenir à gris!)
   (C)                 (Em)
e |-------------------|----0---0---0---0--|
B |----1---1---1---1--|-------------------|
G |-------------------|-------------------|
D |-------------------|--2---2---2---2----|
A |--3---3---3---3----|-------------------|
E |-------------------|-------------------|

   (Am)
e |-------------------|-------------------|
B |-------------------|-------------------|
G |----2---2---2---2--|----2---2---2---2--|
D |-------------------|-------------------|
A |--0---0---0---0----|--0---0---0---0----|
E |-------------------|-------------------|

                            (Devenir à gris!)
   (C)                 (Em)
e |-------------------|----0---0---0---0--|
B |----1---1---1---1--|-------------------|
G |-------------------|-------------------|
D |-------------------|--2---2---2---2----|
A |--3---3---3---3----|-------------------|
E |-------------------|-------------------|

   (Am)
e |-------------------|-------------------|
B |-------------------|-------------------|
G |----2---2---2---2--|----2---2---2---2--|
D |-------------------|-------------------|
A |--0---0---0---0----|--0---0---0---0----|
E |-------------------|-------------------|


[Verse 1]
Dm               Dsus2     Dm
    One man on a lonely platform,
F                    Am
    One case sitting by his side,
Dm                   Dsus2     Dm
    Two eyes staring cold and silent,
F                      Am
    Shows fear as he turns to hide!


[Chorus]
C6   Am   Em  Em/G               Am
Ah------, ah-------, we fade to grey, (Fade to grey!)
C6   Am   Em  Em/G               Am
Ah------, ah-------, we fade to grey! (Fade to grey!)


[Verse 2]
Dm
    Un homme dans une gare dsole,
F                         Am
    Une valise a ses co - ts,
Dm
    Deux yeux fixes et froids, 
F                               Am
    Montre de la peur lorsqu - 'il..
Am
  ...Se tourne pour se cacher!


[Chorus]
C6   Am   Em  Em/G               Am
Ah------, ah-------, we fade to grey, (Fade to grey!)
C6   Am   Em  Em/G               Am
Ah------, ah-------, we fade to grey! (Fade to grey!)


[Break]
   (Am)
e |-------------------|-------------------| [x2]
B |-------------------|-------------------|
G |----2---2----------|----2---2----------|
D |-------------------|-------------------|
A |--0---0---0--------|--0---0---0--------|
E |-------------------|-------------------|


[Verse 3 & Chorus]
C6           Am                       Em
    Sent la pluie comme un t Ang - lais,
            Em/G                        C6
Entends les notes d'une chanson loin - taine,
Am                      Em
     Sortant de derri - ère d'un poster,
Em/G                 C6             Am
     Esprant que la vie ne fut si longue!
                     Ah------------------,

Em   Em/G              Am
Ah-------, we fade to grey, (Fade to grey!)
C6   Am   Em  Em/G               Am
Ah------, ah-------, we fade to grey! (Fade to grey!)


[Verse 4]
Dm                          Dsus2    Dm
    Feel the rain, like an English summer,
F                            Am
    Feel the notes from a distant song,
Dm                       Dsus2     Dm
    Stepping out from a backdrop poster,
F                        Am
   Wishing life wouldn't be so dull!(Devenir à gris!)


[Chorus - Repeat]
C6   Am   Em  Em/G               Am
Ah------, ah-------, we fade to grey, (Fade to grey!)
C6   Am   Em  Em/G               Am
Ah------, ah-------, we fade to grey! (Fade to grey!)

TAB AND LYRICS COMMENTS:

There is no comments for the fade to grey (ver 2) chords sheet music yet. Please post one now!

© 2015 TabCrawler Online Sheet Music Tablature Archive