I Am Alpha And Omega Chasing chords

 
TabCrawler.ComI / I Am Alpha And Omega / Chasing log in ] [ register ]
TABCRAWLER Online Sheet Music & Lyrics Archive Member Votes: 0 / 5(0 votes)
TAB VIEWS for chasing chords: 172

To to be able to download PDF tabs, rate, comment & submit guitar tabs, bass tabs, keyboard tab, lyrics and drum tab files you must LOGIN TO TABCRAWLER Online Guitar Tabs & Guitar Pro, Bass Tab, Drum Tabs Archive MEMBERS ONLY AREA.
[PRINT]
Did this chords for chasing help you?
You must LOGIN to rate this chords.
Help us improve the tab & lyrics archive!

Chasing by I Am Alpha And Omega

Song: Chasing
Artist: I Am Alpha and Omega
Album: The Roar and The Whisper
Website: http://www.myspace.com/iamalphaandomega

hey everyone just thought i should share this tab/chords with everyone because this is 
awesome song. i think this is about 99.5% acuurate.

i got the chord NAMES from chordfind but im not sure if they are completely accurate(not 
chords, the chord names) i also got the lyrics from here: 
(with corrections)

note: im not sure of the timing/strumming of the chords/leads, but i know they are correct.

but whatever here goes nothing enjoy.
(suggestions or questions? email me at [email protected])

chords:
am7     esus    asus     em      em7     g2      c2       d
e|---   e|---   e|---   e|---   e|-3-   e|-3-   e|-3-   e|-2-|
a|-1-   a|(0)   a|-3-   b|---   b|-3-   b|-3-   b|-3-   b|-3-|
d|-0-   d|-4-   d|-2-   g|---   g|-0-   g|-0-   g|-0-   g|-2-|
g|-2-   g|-2-   g|-0-   d|-2-   d|-2-   d|-0-   d|-2-   d|-0-|
b|---   b|---   b|---   a|-2-   a|-2-   a|-2-   a|-3-   a|---|
e|---   e|---   e|---   e|-0-   e|-0-   e|-3-   e|-0-   e|---|

lead parts: listen to song for timing

legend:
hold note = ~

lead 1:
e|------------------------------------------------------------5~~~~-------|
b|-5-7-8-5-7-8~~--7-8---7-8~~7~~~~--5-7-8-5-7-8~~--7-8---7-8~~-----8~~7~~-|
g|--------------7-----7--------------------------7-----7------------------|
d|------------------------------------------------------------------------|
a|------------------------------------------------------------------------|
e|------------------------------------------------------------------------|

lead 2:
e|-20--19--15----------20--19--15--17~~~~--|
b|-------------15~~~~----------------------|
g|-----------------------------------------|
d|-----------------------------------------|
a|-----------------------------------------|
e|-----------------------------------------|

....................OR.....................

e|--8--7--3---------8--7--3--5~~~~--|
b|-----------3~~~~------------------|
g|----------------------------------|
d|----------------------------------|
a|----------------------------------|
e|----------------------------------|


intro: am7 esus asus am7 esus asus 
(x2)

       am7 esus asus, then go right into verse

am7         esus          asus     em
Sometimes I lie awake and see
am7       esus         asus
My imperfections, they run so deep
start lead 1 AND 2 at "I..." (and keep repeating till after there)
am7        esus             asus      em
I close my eyes and start a prayer to you
am7         esus           asus
No matter how ashamed, you need me there

just lead 2 plays once
&
am7 esus asus em (x2)

c2          g2            d             em7
How can you love me, when I won't stand beside you?
c2            g2            d
You just keep chasing after me
c2         g2                  d                  em7
Why do you give me grace, when I have no place to keep it?
c2            g2            d
You just keep chasing after me

am7       esus               asus       em
In darker times, I've tested thee
am7      esus              asus
I've run long, and hard to find your end
am7        esus       asus      em
No matter how far, or fast I go
am7           esus        asus                     leads start on next line->
You're always waiting, to wrap your arms around me
am7        esus            asus     em      )-x2!
(You're always waiting for me)              )-^^^

c2          g2            d             em7
How can you love me, when I won't stand beside you?
c2            g2            d
You just keep chasing after me                                

TAB AND LYRICS COMMENTS:

There is no comments for the chasing chords sheet music yet. Please post one now!

© 2019 TabCrawler Online Guitar Tab and Music Lessons Archive