Joshua Radin Brand New Day (ver 2) chords

 
TabCrawler.ComJ / Joshua Radin / Brand New Day (ver 2) log in ] [ register ]
TABCRAWLER Online Sheet Music & Lyrics Archive Member Votes: 0 / 5(0 votes)
TAB VIEWS for brand new day (ver 2) chords: 29

To to be able to download PDF tabs, rate, comment & submit guitar tabs, bass tabs, keyboard tab, lyrics and drum tab files you must LOGIN TO TABCRAWLER Online Guitar Tabs & Guitar Pro, Bass Tab, Drum Tabs Archive MEMBERS ONLY AREA.
[PRINT]
Did this chords for brand new day (ver 2) help you?
You must LOGIN to rate this chords.
Help us improve the tab & lyrics archive!

Brand New Day (ver 2) by Joshua Radin

-------------------------------------------------------------------------------
                             BRAND NEW DAY - Joshua Radin
-------------------------------------------------------------------------------
Tabbed by: Danny Walden
Email: [email protected]om

Tuning: standard, Capo 8

All chords are relative to capo.
Keep your pinky on the high E string for the whole song except the Dm in the chorus.  
there are two C chords in a row, hammer on the G string with the middle finger or play 
kind of fill.

    C    Fadd9   G    Am   G/B   Dm   Em7
e|--3------3-----3-----3----3-----1----3-----------------------------------|
B|--1------1-----3-----1----1-----3----0-----------------------------------|
G|--0------2-----0-----2----0-----2----0-----------------------------------|
D|--2------3-----0-----2----0-----0----2-----------------------------------|
A|--3------x-----2-----0----2-----x----2-----------------------------------|
E|--x------x-----3-----x----x-----x----0-----------------------------------|


Intro: C  Fadd9  C  Fadd9  C  C

C      Fadd9       C   C
Some kind of magic
C          Fadd9     G    Fadd9
Happens late at night
C             Fadd9    Am         Fadd9
When the moon smiles down at me
C                 Fadd9     C   C
And bathes me in its light


I fell asleep beneath you
In the tall blades of grass
When I woke the world was new
                C   G/B   Am
I never had to ask

          G         C
Itís a brand new day
 G/B         Am
The sun is shining
          G              C     G/B    Am
Itís a brand new day
             G           C
For the first time in
 G/B   Am            Fadd9
such a long long time
Dm           C     Fadd9
I know
C
Iíll be ok

Intro

Most kind of stories
Save the best part for last
Most stories have a hero who finds
You make your past your past
Yea you make your past your past

Itís a brand new day
The sun is shining
Itís a brand new day
For the first time
In such a long long time
I know
Iíll be ok

Intro

Em7            Fadd9    C
This cycle never ends
Em7     Fadd9        G
Gotta fall in order to mend


And itís a brand new day
Itís a brand new day
For the first time
In such a long long time
I know
Iíll be ok

Intro

TAB AND LYRICS COMMENTS:

There is no comments for the brand new day (ver 2) chords sheet music yet. Please post one now!

© 2019 TabCrawler Online Guitar Tab and Music Lessons Archive