Phillip Phillips Home (ver 3) chords

ionicons-v5-k ionicons-v5-j
a b c d e f g h i j k l m n o p q r s t u v w x y z 0-9
 
TabCrawler.ComP / Phillip Phillips / Home (ver 3) log in ] [ register ]
TABCRAWLER Online Sheet Music & Lyrics Archive Member Votes: 0 / 5(0 votes)
TAB VIEWS for home (ver 3) chords: 76

To to be able to download PDF tabs, rate, comment & submit guitar tabs, bass tabs, keyboard tab, lyrics and drum tab files you must LOGIN TO TABCRAWLER Online Guitar Tabs & Guitar Pro, Bass Tab, Drum Tabs Archive MEMBERS ONLY AREA.
[PRINT]
Did this chords for home (ver 3) help you?
You must LOGIN to rate this chords.
Help us improve the tab & lyrics archive!

Home (ver 3) by Phillip Phillips

Phillip Phillips - Home

Like Our Band On Facebook! :) 
www.Facebook.com/SkyferdLake

And Check Us Out On Youtube! :)
www.youtube.com/SkyferdLake

Don't Forget Twitter! :)
www.Twitter.com/SkyferdLake

Notes*:
   -This is based off of the studio recording
   which can be found here: http://youtu.be/HQII5-VaLIE
 
   -I tabbed out the song in a 4/4 time (about 120bpm)

   -If you have a bassist, don't play the slash chords
   have them play the note on the right and you play the
   chord on the left

Chords - E A D G B E
C      - X 3 2 0 1 X
Fsus2  - X 3 3 0 1 X
F      - 1 3 3 2 1 1 
F*     - X X 3 2 1 X
Am     - X 0 2 2 1 0
C/B    - X 2 X 0 1 0
G      - 3 X 0 0 3 3 
C/E    - X X 2 0 1 0
G/D    - X 5 5 4 3 X

Intro: 
C - Fsus2 - C - Fsus2

Verse 1:
C      Fsus2             C   Fsus2
Hold on    to me as we go
      C         Fsus2                   C   Fsus2
As we role down     this unfamiliar road
              Am   F                       C   Fsus2
Although this wave    is stringing us along

Chorus:
     C    C/B    Am  G    Am
Just know you're not alone
              F*   C/E  G/D        C
Cuz I'm gonna make this place your  home

Verse 2:
C          Fsus2               C      Fsus2
Settle down      it will all be clear
C                        Fsus2                     C     Fsus2
Don't pay no mind to the demons they fill you with fear
Am                        F
Trouble it might drag you down
           C                      G
If you get lost you can always be found

Chorus:
     C    C/B    Am  G    Am
Just know you're not alone
              F    C/E  G/D        C
Cuz I'm gonna make this place your  home

Refrain:
F - C - Am - G  
F - C - G - G   x3

Verse 2:
C          Fsus2               C      Fsus2
Settle down      it will all be clear
C                        Fsus2                     C     Fsus2
Don't pay no mind to the demons they fill you with fear
Am                        F
Trouble it might drag you down
           C                      G
If you get lost you can always be found

Chorus:
     C    C/B    Am  G    Am
Just know you're not alone
              F    C/E  G/D        C
Cuz I'm gonna make this place your  home

Refrain:
F - C - Am - G
F - C - G - G    x2

Outro:
Acapella (These are the notes for the chant)
 | 1 + 2 + 3 + 4 +  | 1 + 2 + 3 + 4 + | 1 + 2 + 3 + 4 + |(Rest)| 
e|------------------|-----------------|-----------------|------|
B|------------------|-----------------|-----------------|------|
G|-------12*--------|---12*-----------|-----12*---------|------|
D|-7*------------12*|-----------------|-7*-----------12*|------|
A|---------7*-------|-7*--7*----------|---------7*------|------|
E|------------------|-----------------|-----------------|------|

 | 1 + 2 + 3 + 4 +  | 1 + 2 + 3 + 4 + |(Rest)|(Rest)| 
e|------------------|-----------------|------|------|
B|------------------|-----------------|------|------|
G|-------12*--------|---12*-----------|------|------|
D|-7*------------12*|-----------12*---|------|------|
A|---------7*-------|-7*--7*----------|------|------|
E|------------------|-----------------|------|------|


Here are some variations my band does for the chant in the refrain

Variation 1 (Guitar + Piano)

          1 + 2 + 3 + 4 + | 1 + 2 + 3 + 4 + | 1 + 2 + 3 + 4 |(Rest)| 
       e|-5---------------|-----------------|-5-------------|------|
       B|-------8-5-------|-5-8-5-----------|-----8---5-----|------|
Piano  G|---------------7-|-----------------|-------------7-|------|
Part   D|-----------------|-----------------|---------------|------|
       A|-----------------|-----------------|---------------|------|
       E|-----------------|-----------------|---------------|------|
        |                                                          |  
Chords  |F                |C                |Am             |G     |  
        |                                                          | 
       e|-----------------|-----------------|---------------|------|
       B|-----------------|-----------------|---------------|------|
Guitar G|-2-----0---------|---0-------------|-2---0---------|------|
Part   D|---------2-----0-|-2---2-----------|---------2---0-|------|
       A|-----------------|-----------------|---------------|------|
       E|-----------------|-----------------|---------------|------|

          1 + 2 + 3 + 4 + | 1 + 2 + 3 + 4 + |(Rest)|(Rest)| 
       e|-5---------------|-----------------|------|------|
       B|-------8-5-------|-5-8-5-----3-----|------|------|
Piano  G|---------------7-|-----------------|------|------|
Part   D|-----------------|-----------------|------|------|
       A|-----------------|-----------------|------|------|
       E|-----------------|-----------------|------|------|
        |                                                 |  
Chords  |F                |C                |G      |G    |  
        |                                                 | 
       e|-----------------|-----------------|------|------|
       B|-----------------|-----------------|------|------|
Guitar G|-2-----0---------|---0-------------|------|------|
Part   D|---------2-----0-|-2---2-----0-----|------|------|
       A|-----------------|-----------------|------|------|
       E|-----------------|-----------------|------|------|

Variation 2 (Natural Harmonics [Guitar]) 
{Good for when the crowd sing is singing it}

 |F                 |C                |Am               |G     |
 | 1 + 2 + 3 + 4 +  | 1 + 2 + 3 + 4 + | 1 + 2 + 3 + 4 + |(Rest)| 
e|------------------|-----------------|-----------------|------|
B|------------------|-----------------|-----------------|------|
G|-------12*--------|---12*-----------|-----12*---------|------|
D|-7*------------12*|-----------------|-7*-----------12*|------|
A|---------7*-------|-7*--7*----------|---------7*------|------|
E|------------------|-----------------|-----------------|------|

 |F                 |C                |G     |G     |
 | 1 + 2 + 3 + 4 +  | 1 + 2 + 3 + 4 + |(Rest)|(Rest)| 
e|------------------|-----------------|------|------|
B|------------------|-----------------|------|------|
G|-------12*--------|---12*-----------|------|------|
D|-7*------------12*|-----------12*---|------|------|
A|---------7*-------|-7*--7*----------|------|------|
E|------------------|-----------------|------|------|

TAB AND LYRICS COMMENTS:

There is no comments for the home (ver 3) chords sheet music yet. Please post one now!

© 2020 TabCrawler Online Guitar Tab and Music Lessons Archive