Port Obrien My Will Is Good chords

ionicons-v5-k ionicons-v5-j
a b c d e f g h i j k l m n o p q r s t u v w x y z 0-9
 
TabCrawler.ComP / Port Obrien / My Will Is Good log in ] [ register ]
TABCRAWLER Online Sheet Music & Lyrics Archive Member Votes: 0 / 5(0 votes)
TAB VIEWS for my will is good chords: 7

To to be able to download PDF tabs, rate, comment & submit guitar tabs, bass tabs, keyboard tab, lyrics and drum tab files you must LOGIN TO TABCRAWLER Online Guitar Tabs & Guitar Pro, Bass Tab, Drum Tabs Archive MEMBERS ONLY AREA.
[PRINT]
Did this chords for my will is good help you?
You must LOGIN to rate this chords.
Help us improve the tab & lyrics archive!

My Will Is Good by Port Obrien

"My Will Is Good" by Port O'brien

chords used:

    Em  Em/C  Am  G  Dm  C
e   0    0    0   3  1   0
B   0    1    1   0  3   1
G   0    0    2   0  2   0
D   2    2    2   0  0   2
A   2    2    0   2  x   3
E   0    0    x   3  x   x


fig.1:    ( L stands for a tief note)

     Q    Q    Q    Q       E  E  E  Q    Q.        Q    Q    Q    Q     
E||----------------------|-----------------------|----------------------|
B||--3----1----0---------|--------0--------------|--3----1----0---------|
G||-----------------0----|--0--2-----2----0------|-----------------0----|
D||----------------------|-----------------------|----------------------|
A||----------------------|-----------------------|----------------------|
E||----------------------|-----------------------|----------------------|
 
 
  E  E  E  Q    Q.        Q    Q    Q    Q       E  E  E  Q    Q.      
-----------------------|----------------------|-----------------------|
--------0--------------|--3----1----0---------|--------0--------------|
--0--2-----2----L------|-----------------0----|--0--2-----2----0------|
-----------------------|----------------------|-----------------------|
-----------------------|----------------------|-----------------------|
-----------------------|----------------------|-----------------------|
 
 
  Q    Q    Q    Q       Q    E  Q    Q.      
----------------------|----------------------|
--3----1----0---------|-------3--1----0------|
-----------------0----|--L-------------------|
----------------------|----------------------|
----------------------|----------------------|
----------------------|----------------------|



 

   Em             Em/C 
Late you ask your ache
                           Em                   Em/C
Cross your fingers did you find somebody to blame?
                      Em              Em/C
Bank it all up on the next years lottery

I think my will is good.


< first 2 bars of fig.1>


 Em               Em/C
Windy, settle down
                               Em                     Em/C
I find some comfort, and you tell me that I told you so
                      Em                 Em/C
Try to trade it for a cheap skate holiday

I think my will is good.

< first 2 bars of fig.1 >

Am                G
And every other time
Dm                    Am
The tide will come to turn
Am              G
Try to tag along
Dm              Am   G
Will you never learn to
Am               G
Keep it to yourself
Dm             Am
Look the other way
Am               G
How could I suffice?
Dm          Am     G
You re all I ever hated.

Em                 Em/C
Every other year I try to wait and bet
 Em                         Em/C
While you slowly take to much
                        Em                        Em/C
Pocket one more piece, of our true stories and dreams

I think my will is good


< bar 3 and 4 of fig.1 >

 Em                   Em/C
Try my best to admire that I am not a traitor
 Em                       Em/C
And all your well worn ways
                          Em           Em/C
Will only get you what you wanted anyway

I think my will is good.

< first 2 bars of fig.1 >


Am                G
And every other time
Dm                    Am
The tide will come to turn
Am              G
Try to tag along
Dm              Am   G
Will you never learn to
Am               G
Keep it to yourself
Dm             Am
Look the other way
Am               G
How could I suffice?
Dm          Am     G
You re all I ever hated.

< 1 bar G >

C            G
I was never home
C            G
I was never here
C                         G
All these thoughts came back
Am      G          Am        Am       C     C
To you this time, of me.

< fig. 1 >


 

TAB AND LYRICS COMMENTS:

There is no comments for the my will is good chords sheet music yet. Please post one now!

© 2020 TabCrawler Online Guitar Tab and Music Lessons Archive