Yeng Constantino Di Na Ganun (ver 2) chords

ionicons-v5-k ionicons-v5-j
a b c d e f g h i j k l m n o p q r s t u v w x y z 0-9
 
TabCrawler.ComY / Yeng Constantino / Di Na Ganun (ver 2) log in ] [ register ]
TABCRAWLER Online Sheet Music & Lyrics Archive Member Votes: 0 / 5(0 votes)
TAB VIEWS for di na ganun (ver 2) chords: 87

To to be able to download PDF tabs, rate, comment & submit guitar tabs, bass tabs, keyboard tab, lyrics and drum tab files you must LOGIN TO TABCRAWLER Online Guitar Tabs & Guitar Pro, Bass Tab, Drum Tabs Archive MEMBERS ONLY AREA.
[PRINT]
Did this chords for di na ganun (ver 2) help you?
You must LOGIN to rate this chords.
Help us improve the tab & lyrics archive!

Di Na Ganun (ver 2) by Yeng Constantino

Song: Di na ganun
Artist: Yeng Constantino
Tabbed by: Henrick Pealane
Age: 18 yrs old

(sa intro meron dung bass na nag-iislide back, ewan ko kung tama...pakinggan nyu nlng din)
Intro:
       A       (bass part)       E
e|---------0-|-------------|--------------------0----|
B|--0--------|-------------|----------0-----------0--|
G|-----2-----|-------------|-------1---------1-------| 
D|-----------|-------------|----2----------2---------|   
A|--0--------|-------------|--2----------2-----------|   
E|-----------|--5/3-----0--|-------------------------|

Verse:
  A                                  E          E|-0-|
Paano nalang kung ako ang iiyak sa iyo          B|-0-| just to inform you
  A                                    E        G|-2-| how I do A..but it's
paano na yan buti kung may magawa pa ako        D|-2-| still up to you..
     C#m                             E          A|-0-|
eh paano na kung ako na ang nahihirapan         E|-0-|
   A                                   E
magagawa ko ba sayo na bigla kang talikuran

Refrain:
   G#m               F#m
Wala na ang dating tamis,
   G#m                   A         D-C#m-B
at sa tingin ko’y di ko na maibabalik

Chorus:
      E                B                  C#m    A
Bakit di ko maaming wala na ang dating damdamin,
         B
di na ganun…
      E                  B               C#m      C
at hindi ko na kayang piliting muli mong angkinin
         E    (Intro 2x)
di na ganun

Fill in:
e|--7--4--------7--3-/2---------7--4-------------|
B|--------7--5----------7--5-----------7--5---0--| sounds like...^^
G|-----------------------------------------------| (synthesizer xa)
A|-----------------------------------------------|

Verse: (same chords and timing)
Paano nalang kung biglang masabi ko sa iyo
buti kung intindihin mo ako
Paano kaya kung ikaw ay akin nang iwasan o iwanan

Refrain: (just follow the refrain above except the "D-C#m-B")
Wala na ang dating tamis,
at sa tingin ko’y di ko na ibabalik

Chorus:
Bakit di ko maaming wala na ang dating damdamin,
di na ganun…
at hindi ko na kayang piliting muli mong angkinin
di na ganun

Bridge:
C#m    /C           /B                 /Bb 
Ibubulong nalang sa hangin ang aking nararamdaman
A       F#m             A         Am 
nalilito na ako pano mo ba malalaman

(repeat chorus once then adlib) guitar only

Adlib: E-B-C#m-A-B

e|-------------------------------------------------------|
B|--------------------------------------9/10--9--7-------|
G|-13/14--13---9--11--13---9--11--13------------------9--| 
D|-------------------------------------------------------| 
A|-------------------------------------------------------|
E|-------------------------------------------------------|

e|--11/12--11--9h11p9--------------12--14---16---16s^17--^16--17/19~--|
B|---------------------12---12/14-------------------------------------|
G|--------------------------------------------------------------------|
D|--------------------------------------------------------------------|
A|--------------------------------------------------------------------|
E|--------------------------------------------------------------------|

Chorus:
      E                B                  C#m    A
Bakit di ko maaming wala na ang dating damdamin,
         B
di na ganun…
      E                  B               C#m      A
at hindi ko na kayang piliting muli mong angkinin
         E    
di na ganun
         B
Di na ganun
         C#m A B
Di na ganun
         E
Di na ganun
         B
Di na ganun
         C#m A B C
Di na ganun....

/=slide
^=alternate picking
h=hammer
p=pull off
~=let ring or vibratto

un lang poh...
grabe ganda nitong song na to...
ate yeng, pinag aralan ko talaga tu para sayu...crush kita eh...hehe
God bless sa inyo...
rate nyu nlng poh...
just add me nalang...
"[email protected]"
tnx....

TAB AND LYRICS COMMENTS:

There is no comments for the di na ganun (ver 2) chords sheet music yet. Please post one now!

© 2020 TabCrawler Online Guitar Tab and Music Lessons Archive