Nirvana Unplugged In Ny (ver 2) (album) chords

ionicons-v5-k ionicons-v5-j
a b c d e f g h i j k l m n o p q r s t u v w x y z 0-9
 
TabCrawler.ComN / Nirvana / Unplugged In Ny (ver 2) (album) log in ] [ register ]
TABCRAWLER Online Sheet Music & Lyrics Archive Member Votes: 0 / 5(0 votes)
TAB VIEWS for unplugged in ny (ver 2) (album) chords: 174

To to be able to download PDF tabs, rate, comment & submit guitar tabs, bass tabs, keyboard tab, lyrics and drum tab files you must LOGIN TO TABCRAWLER Online Guitar Tabs & Guitar Pro, Bass Tab, Drum Tabs Archive MEMBERS ONLY AREA.
[PRINT]
Did this chords for unplugged in ny (ver 2) (album) help you?
You must LOGIN to rate this chords.
Help us improve the tab & lyrics archive!

Unplugged In Ny (ver 2) (album) by Nirvana

UNPLUGGED ALBUM - NIRVANA - CHORD VERSION.

All tabs tabbed by:skatersic666 (Steve).



LISTEN TO THE CD OR WATCH THE PERFORMANCE TO FIND OUT THE TIMING
----------------------------------------------------------------------------
Track Listings:
1. About A Girl
2. Come As You Are
3. Jesus Doesn't Want Me For A Sunbeam
4. The Man Who Sold The World
5. Pennyroyal Tea
6. Dumb
7. Polly
8. On A Plain
9. Something In The Way
10. Plateau
11. Oh Me
12. Lake Of Fire
13. All Apologies
14. Where Did You Sleep Last Night
--------------------------------------------------------------------------
Chords Needed to play the songs:

Em      : 022000
G       : 320001
C#5     : x466xx
C#5/G#  : 4466xx
F#5     : 355xxx
E       : 022100
A5      : x022xx
C5      : x355xx
G#5     : 466xxx
B5      : x355xx 
Am      : x02210
C       : x32010
Esus4   : 022200
Dm      : xx0231
F       : xx3211
A7      : x02020
Bbm     : xx3321
A       : x02220
Asus2   : 002200
B5      : x2444x
C#5     : x4666x
A#5     : 5777xx
E5      : 022xxx
B       : xx4442
G5      : 355xxx
G5*     : 3x0033
Bb5     : x133xx
D       : xx0232
F5*     : xx35xx
E5*     : xx24xx
F5      : 133xxx
B#5     : x244xx
Bb      : x13331
Dsus2   : xx0230
Asus4   : x0223x
B+      : x1333x
B5+     | 688xxx


some of the chords have the same name but are variations, these
have '*' or '+' nect to them. They will also have the special
characters nect to the chords in the tabs aswell.
----------------------------------------------------------------------------
1.About A Girl.
Tuning: 1/2 step down (Eb Ab Db Gb Bb Eb)


INTRO:
Em   G    x9


VERSE 1:
Em   G       Em       G     Em
I   need an easy friend, I do,
G       Em        G    Em
with an ear to lend, I do,
G         Em          G    Em
think you fit this shoe, I do,
G         Em       G
but you have a  clue. 


CHORUS:
C#5       C#5/G5   F#5          C#5     C#5/G5  F#5
     I'll take advantage while     you hang me out  to dry,
    E               A5     C5     Em      G    Em   G
but I can't see you every night   Free______
Em   G    Em   G
I do__


VERSE 2:
Em      G        Em     G     Em
I'm standing in your line,  I do
G         Em         G     Em
hope you have the time, I do
G       Em     G     Em
Pick a number to, I do
G        Em        G
keep a date with you.


CHORUS 2:
C#5       C#5/G5   F#5          C#5     C#5/G5  F#5
     I'll take advantage while     you hang me out  to dry,
    E               A5     C5     Em      G    Em   G
but I can't see you every night   Free______
Em   G    Em   G
I do__


SOLO:
-|-----------------------------------------------|-
-|-----------------------------------------------|-
-|-----------------------------------12--12--12--|- x4
-|-----------5--7---9--9--9--12--12--------------|-
-|-----5--7--------------------------------------|-
-|--0--------------------------------------------|-


INTERLUDE:
C#5      C#5/G5      F#5         C#5     C#5/G5     B5

E     A5      C5         

Em  G  x4


VERSE 3:
Em   G       Em       G     Em
I   need an easy friend, I do,
G       Em        G    Em
with an ear to lend, I do,
G         Em          G    Em
think you fit this shoe, I do,
G         Em       G
but you have a  clue. 


CHORUS 3/OUTRO:
C#5       C#5/G5   F#5          C#5     C#5/G5  F#5
     I'll take advantage while     you hang me out  to dry,
    E               A5     C5        
but I can't see you every night,  
E               A5     C5___________
but I can't see you every night
Em    G     Em   G
Free_____________
Em   G      Em   G
I do____________
Em    G     Em   G
I do______________



--------------------------------------------------------------------------
2.Come As You Are.
Tuning: 1/2 step down (Eb Ab Db Gb Bb Eb) 
  


INTRO/MAIN RIFF:
-|-------------------------------------------|-
-|-------------------------------------------|-
-|-------------------------------------------|-
-|-------------------------------------------|- x4
-|--------------0---0-----------2---------2--|-
-|--0--0--1--2----2----2--1--0-----0--0------|-


VERSE 1 (use the intro/main riff):
Come as you are, as you were, as i want you to be,
AS a friend, as a friend as an old memory


VERSE 2 (Use the intro/main riff):
Take your time, hurry up, the choice is yours,
take a rest, as a friend,
As an old memory__________


CHORUS 1:
Esus4          G                Esus4       G
________________      Memory_____________________
        Esus4       G                  Esus4       G
Memory_____________             Memory____________


VERSE 3 (use the intro/main riff):
Come doused in mud, served in bleach,
as i want you to be. As a trend, as a friend,
as an old memory__________


CHORUS 2:
Esus4          G                Esus4       G
________________      Memory_____________________
        Esus4       G                  Esus4       G
Memory_____________             Memory____________


BRIDGE:
Am               C            Am              C         
       Well, I swear that i don't have a gun,
        Am              C         Am                    C
No, I don't have a gun,     No i don't have a gun__________


SOLO:
-|-------------------------------------------|-
-|-------------------------------------------|-
-|-------------------------------------------|-
-|-------------------------------------------|- x2
-|--------------0---0-----------2---------2--|-
-|--0--0--1--2----2----2--1--0-----0--0------|-

-|--------------|----------------|-----------------------------------|-
-|--------------|----------------|-----------------------------------|-
-|-6--6/8/10-10-|--6--6/8/10--10-|--6--6/8/10-10/12-12-12-10-10-10-8-|-x5
-|--------------|----------------|-----------------------------------|-
-|--------------|----------------|-----------------------------------|-
-|--------------|----------------|-----------------------------------|-
(If it doesn't sound right use frets 5,7,9,11,13)


CHORUS 3:
Esus4          G                Esus4       G
Meia________________      Memory_____________________
        Esus4       G                  Esus4       G
Memory_____________             Memory____________
        Esus4        G
Memory_____________


BRIDGE:
Am               C            Am              C         
       Well, I swear that i don't have a gun,
        Am              C         Am                    C
No, I don't have a gun,     No i don't have a gun__________
        Am              C         Am                    C
No, I don't have a gun,     No i don't have a gun__________
        Am              C  
No, I don't have a gun,     


OUTRO:
-|-------------------------------------------|-
-|-------------------------------------------|-
-|-------------------------------------------|-
-|-------------------------------------------|- x5
-|--------------0---0-----------2---------2--|-
-|--0--0--1--2----2----2--1--0-----0--0------|-


Memory___________       Memory____________


--------------------------------------------------------------------------
3.Jesus Doesn't Want Me For A Sunbeam.
Tuning: 1/2 step down (Eb Ab Db Gb Bb Eb)


          
INTRO:
E5	D5	A	Asus4   A	    x2
     
     
VERSE 1:
E5	D5	A	Asus4   A	  x4
    
      
CHORUS 1:
E5	D5    x3
          
A	Asus4       A
          

VERSE 2:
E5	D5	A	Asus4   A	  x4
          

CHORUS 2:
E5	D5    x3
          
A	Asus4       A
          

INSTRUMENTAL
          

E5	D5	A	Asus4   A	x2
          

CHORUS 3:
E5	D5    x3
          
A	Asus4       A
   
       
VERSE 3:
E5	D5	A	Asus4   A	  x4
  
        
CHORUS 4:
E5	D5    x3
          
A	Asus4       A
          

INSTRUMENTAL/OUTRO:        
E5	D5	A	Asus4  A	x2
          
          
Wern't too sure on this one, its probly wrong. Mail me suggestions
---------------------------------------------------------------------
4.The Man Who Sold The World
Tuning: 1/2 step down.
        
INTRO:
e|-----------------------------------------|
B|-----------------------------------------|
G|-2--2--2--0--2h3p2--0--------------------| repeat 6 times THEN
D|-----------------------------------------|
A|-----------------------------------------|
E|-----------------------------------------|

e|--------|
B|--------|
G|-2------| 

TAB AND LYRICS COMMENTS:

There is no comments for the unplugged in ny (ver 2) (album) chords sheet music yet. Please post one now!

© 2020 TabCrawler Online Guitar Tab and Music Lessons Archive