Ryan Adams La Cienega Just Smiled (ver 2) chords

 
TabCrawler.ComR / Ryan Adams / La Cienega Just Smiled (ver 2) log in ] [ register ]
TABCRAWLER Online Sheet Music & Lyrics Archive Member Votes: 0 / 5(0 votes)
TAB VIEWS for la cienega just smiled (ver 2) chords: 116

To to be able to download PDF tabs, rate, comment & submit guitar tabs, bass tabs, keyboard tab, lyrics and drum tab files you must LOGIN TO TABCRAWLER Online Guitar Tabs & Guitar Pro, Bass Tab, Drum Tabs Archive MEMBERS ONLY AREA.
[PRINT]
Did this chords for la cienega just smiled (ver 2) help you?
You must LOGIN to rate this chords.
Help us improve the tab & lyrics archive!

La Cienega Just Smiled (ver 2) by Ryan Adams

La Cienega Just Smiled by Ryan Adams
From the album Gold

Standard tuning
Capo 3


Intro
F G C    X 4

  and
e|--------------------|
B|--------------------|
G|---7-9-7-5---4-5~---|
D|-----------7--------|
A|--------------------|
E|--------------------|


F      G                    C
Ah the night, here it comes again
     F                      G              C
It's on with the jeans, the jacket and the shirt
F           G             C                     Am
How'd I end up feeling so bad for such a little girl
      F                     G          C
And I hold you close in the back of my mind
F                 G                C
Feels so good but damn it makes me hurt
    F                 G             Am    G        F
And I'm too scared to know to how I feel about you now
      F                    G         C       F  C  F
La Cienega just smiles, and "see ya around"

      F                     G          C
And I hold you close in the back of my mind
    F                G           C
And raise my glass 'cause either way I'm dead
F                     G          Am    G  F
Neither of you really help me to sleep anymore
              G            C
One breaks my body and the other breaks my soul
      F               G                C    F  C  F
La Cienega just smiles as it waves goodbye


C  F    X2

  and
e|-----------------------------------------------------------|
B|-----------------------------------------------------------|
G|-----------------------------------------------------------|
D|-----------------5--------------------------5-7--7/9-10~---|
A|---5-7--5-7--5-7---0-----0-3--5-7--5-7--5-7----------------|
E|-----------------------3-----------------------------------|


F      G                     C
Ah the night, here it comes again
     F                       G              C
It's off with the jeans, the jacket and the shirt
F           G             C                     Am
How'd I end up feeling so bad for such a little girl
      F                     G          C
And I hold you close in the back of my mind
F                 G                C
Feels so good but damn it makes me hurt
    F                 G          Am    G        F
And I'm too scared to know how I feel about you now
      Am    G        F
How I feel about you now
     F                     G                    C
La Cienega just smiles and says, "I'll see you around"


F  C  F  C  F  C   (until fadeout)

  and
e|-----------------------|
B|-----------------------|
G|-----------------------|  X 3
D|-----------------5-----|
A|---5-7--5-7--5-7---0---|
E|-----------------------|

  then
e|---------------------------------------|
B|---------------------------------------|
G|---------------------------------------|  X 3
D|----------------------------5/7--7-5---|
A|-----0-3-5-3--5-7--5-7--5-7------------|
E|---3-----------------------------------|





 Chords used        Alternative chords
     F  G  C  Am        G  C  Am
e|---1--3--0--0---------3--3--5---|
B|---1--0--1--1---------3--5--5---|
G|---2--0--0--2---------4--5--5---|
D|---3--0--2--2---------5--5--7---|
A|---3--2--3--0---------5--3--7---|
E|---1--3--3------------3-----5---|

TAB AND LYRICS COMMENTS:

There is no comments for the la cienega just smiled (ver 2) chords sheet music yet. Please post one now!

© 2020 TabCrawler Online Guitar Tab and Music Lessons Archive