Ed Sheeran Feeling Good chords

ionicons-v5-k ionicons-v5-j
a b c d e f g h i j k l m n o p q r s t u v w x y z 0-9
 
TabCrawler.ComE / Ed Sheeran / Feeling Good log in ] [ register ]
TABCRAWLER Online Sheet Music & Lyrics Archive Member Votes: 0 / 5(0 votes)
TAB VIEWS for feeling good chords: 145

To to be able to download PDF tabs, rate, comment & submit guitar tabs, bass tabs, keyboard tab, lyrics and drum tab files you must LOGIN TO TABCRAWLER Online Guitar Tabs & Guitar Pro, Bass Tab, Drum Tabs Archive MEMBERS ONLY AREA.
[PRINT]
Did this chords for feeling good help you?
You must LOGIN to rate this chords.
Help us improve the tab & lyrics archive!

Feeling Good by Ed Sheeran

Ed Sheeran - Feeling Good   
 
Capo 3rd Fred

s= Strum (with palm mute)

  
       Bm      A          G          F#
   |--------------------3--2----3------2----5----2----5---------|  
   |--2-----2-0-------------------------------------------------|  
   |-----4---------2-------0------------------------------------|  
   |-----4---------2-------0------------------------------------|  
   |-----3---------2-------0------------------------------------|  
   |------------------------------------------------------------|  
         s       s           s
  
       Bm      A          G          F#
   |--------------------3--2-------2----2----5----2----5--------|  
   |--2-----2-0-------------------------------------------------|  
   |-----4---------2-------0------------------------------------|  
   |-----4---------2-------0------------------------------------|  
   |-----3---------2-------0------------------------------------|  
   |------------------------------------------------------------|  
         s       s           s





Verse1:
Bm           A     G             F#
Birds flying high you know how I feel 
Sun in the sky you know how I feel 
Reeds driftin' on by you know how I feel 

Chorus:
       Bm
It's a new dawn 
       A
It's a new day 
       G
It's a new life 
    F#
For me 
                  Bm  A  G  F#  F#  A  F#  A  Bm
And I'm feeling good 


Verse 2:
Bm           A     G             F#
Fish in the sea you know how I feel 
River running free you know how I feel 
Blossom in the tree you know how I feel 

Chorus:
       Bm
It's a new dawn 
       A
It's a new day 
       G
It's a new life
     F#
For me 
                  Bm  A  G  F#  F#  A  F#  A  Bm
And I'm feeling good 

Verse 3:
Bm           A     G             F#
Dragonfly out in the sun you know what I mean
Butterflies all havin' fun you know what I mean 
Sleep in peace when the day is done, thats what i mean

Chorus:
       Bm
And this old world
       A
Is a new world
       G
And a bold world 
     F#
For me
                  Bm  A  G  F#  F#  A  F#  A  Bm
And I'm feeling good 

TAB AND LYRICS COMMENTS:

There is no comments for the feeling good chords sheet music yet. Please post one now!

© 2020 TabCrawler Online Guitar Tab and Music Lessons Archive