Anti-flag Turncoat Ukulele chords

ionicons-v5-k ionicons-v5-j
a b c d e f g h i j k l m n o p q r s t u v w x y z 0-9
 
TabCrawler.ComA / Anti-flag / Turncoat Ukulele log in ] [ register ]
TABCRAWLER Online Sheet Music & Lyrics Archive Member Votes: 0 / 5(0 votes)
TAB VIEWS for turncoat ukulele chords: 17

To to be able to download PDF tabs, rate, comment & submit guitar tabs, bass tabs, keyboard tab, lyrics and drum tab files you must LOGIN TO TABCRAWLER Online Guitar Tabs & Guitar Pro, Bass Tab, Drum Tabs Archive MEMBERS ONLY AREA.
[PRINT]
Did this chords for turncoat ukulele help you?
You must LOGIN to rate this chords.
Help us improve the tab & lyrics archive!

Turncoat Ukulele by Anti-flag

Intro
G          Am        C       Em
  Turncoat!   Killer!   Liar!   Thief!
Em            Am         C    G        
Criminal With Protection Of The Law.  Go!

Pre-Verse
G Am C Em G Am C Em

Lead
e|---------------------------------------------|
B|--88-77-88---88-77-1010----5----3----1----1p0|
G|0----------0------------00---00---00---00----|
D|---------------------------------------------|
A|---------------------------------------------|
E|---------------------------------------------|

e|---------------------------------------------|
B|--88-77-88---88-77-1010----5----3----5----7-8|
G|0----------0------------00---00---00---00----|
D|---------------------------------------------|
A|---------------------------------------------|
E|---------------------------------------------|

Verse
G(pm)                 Am(pm)
State lies dressed up as evening news.
(m)(m)Am                        C
We're tired of lies we want the truth.
G(pm)        Am(pm)   
Broadcast by corpses courting you.
(m)(m)Am                        C
We're tired of lies we want the truth.
G(pm)            Am(pm)
Most people they will never know.
(m)(m)Am                        C
We're tired of lies we want the truth.
G(pm)     Am(pm)
With you or against you...
  C    Em     Am  C                  
Then i am against you because your a...   

Chorus     
G          Am        C       Em
  Turncoat!   Killer!   Liar!   Thief!
Em            Am         C    (G)        Parentheses first time only
Criminal With Protection Of The Law.  Go!

repeat

Bridge
(continued from chorus)
G                     
The law in your corner.
Em
 Makes Me wanna.
Am                   D
ooo Douse my self in gasoline.
(m)(m)Am
Civil servants fall in line for you.
(m)(m)Am
To Brainwashed to see the truth.
Am(pm)        Am     Am     C  Am  C Am  C  Am C AmCAmCAmCAmCAmCAmCAm
You can use anyone...you can...Woah

Chorus     
G          Am        C       Em
  Turncoat!   Killer!   Liar!   Thief!
Em            Am         C    (G)        Parentheses first time only
Criminal With Protection Of (The Law).  Go!

repeat

Outro
G     Am     C   Em     G               Am  
Killer.....! Liar.....! A Turncoat..... And a Thief
Em            Am         C    Em
Criminal with protection of the law
C      Am
THE LAW!
Em            Am         C     G
Criminal with Protection of the Law

Lead
e|---------------------------------------------|
B|--88-77-88---88-77-1010----5----3----1----1p0|
G|0----------0------------00---00---00---00----|
D|---------------------------------------------|
A|---------------------------------------------|
E|---------------------------------------------|
                                                repeat 3 or 4 times
e|---------------------------------------------|
B|--88-77-88---88-77-1010----5----3----5----7-8|
G|0----------0------------00---00---00---00----|
D|---------------------------------------------|
A|---------------------------------------------|
E|---------------------------------------------|

TAB AND LYRICS COMMENTS:

There is no comments for the turncoat ukulele chords sheet music yet. Please post one now!

© 2020 TabCrawler Online Guitar Tab and Music Lessons Archive