City And Colour Hello Im In Delaware Ukulele chords

 
TabCrawler.ComC / City And Colour / Hello Im In Delaware Ukulele log in ] [ register ]
TABCRAWLER Online Sheet Music & Lyrics Archive Member Votes: 0 / 5(0 votes)
TAB VIEWS for hello im in delaware ukulele chords: 56

To to be able to download PDF tabs, rate, comment & submit guitar tabs, bass tabs, keyboard tab, lyrics and drum tab files you must LOGIN TO TABCRAWLER Online Guitar Tabs & Guitar Pro, Bass Tab, Drum Tabs Archive MEMBERS ONLY AREA.
[PRINT]
Did this chords for hello im in delaware ukulele help you?
You must LOGIN to rate this chords.
Help us improve the tab & lyrics archive!

Hello Im In Delaware Ukulele by City And Colour

Song: Hello, I'm in Delaware 
Artist: Dallas Green
Album: The Death of Me EP 
Tabbed by:  Alejandro D'Brot 
            [email protected]


p= pull-off 
h= hammer-on 
/= slide up
= slide down

Tuning: DGDGBe - Capo on 4th Fret

NOTE: Dallas varies things a lot and I don't intend to tab out every note he plays,
but this is the basic structure of the song.

[intro]

e|---0---0---------------------------0---0---| 
B|---3---3--2/32------------------3---0---|
G|---2---0----------2/42----------0---0---|
D|---0---0------------------2/42--0---7---|
G|---4---0---------------------------4---7---|
D|---0---0---------------------------2---5---|


[ verse ]

e|---0---0---------------------------0---0---| 
B|---3---3--2/32------------------3---0---|
G|---2---2----------2/42----------0---0---|
D|---0---0------------------2/42--0---7---|
G|---4---0---------------------------4---7---|
D|---0---0---------------------------2---5---|


[ pre-chorus ]

e|---2--------------------0--------------------0---| 
B|---3--------------------3--------------------0---|
G|---0--------------------0--------------------0---|
D|---4-------0h2h4-----0--4-------0h2h4-----0--7---|
G|---2-0h2h4-------2p0----4-0h2h4-------2p0----7---|
D|---0--------------------2--------------------5---|


[ chorus ]

e|---0---0---0---| 
B|---3---0---0---|
G|---0---0---0---|
D|---4---4---7---|
G|---2---4---7---|
D|---0---2---5---|

end on:

e|---0---| 
B|---0---|
G|---0---|
D|---4---|
G|---2---|
D|---0---|



[ ORDER ]

[intro] x2
[verse] x4
[pre-chorus]
[chorus] x2
[intro] x2
[verse] x4
[pre-chorus]
[chorus] x2
[verse] x2
[chorus] x4

TAB AND LYRICS COMMENTS:

There is no comments for the hello im in delaware ukulele chords sheet music yet. Please post one now!

© 2019 TabCrawler Online Guitar Tab and Music Lessons Archive