Say Anything Total Revenge Ukulele chords

 
TabCrawler.ComS / Say Anything / Total Revenge Ukulele log in ] [ register ]
TABCRAWLER Online Sheet Music & Lyrics Archive Member Votes: 0 / 5(0 votes)
TAB VIEWS for total revenge ukulele chords: 11

To to be able to download PDF tabs, rate, comment & submit guitar tabs, bass tabs, keyboard tab, lyrics and drum tab files you must LOGIN TO TABCRAWLER Online Guitar Tabs & Guitar Pro, Bass Tab, Drum Tabs Archive MEMBERS ONLY AREA.
[PRINT]
Did this chords for total revenge ukulele help you?
You must LOGIN to rate this chords.
Help us improve the tab & lyrics archive!

Total Revenge Ukulele by Say Anything

Total Revenge-Say Anything

standard tuning

tabbed by Amy (is so two years ago)

Intro
e|----------------------------------------------------------------------|
B|-------4---4---4-----------2---2---2----------------------------------|
G|----------------------------------------------------------------------|
D|-4/6--------------2/4---------------------------------7-6-------------|x2
A|-----2---2---2-----------0---0---0---------2-4-2-4-2--x-x-------------|
E|-------------------------------------2h4---0-0-0-0-0--0-0-------------|


Verse
e|----------------------------|
B|----4--------------------5--|
G|----4--4-3-4---------4-6-4--|
D|---(2)-2-4-2--x4-----4-6-2--|
A|----2--2-2-2---------2-4----|
E|----------------------------|


Chorus
e|-----------------------|
B|-5----4----------------|
G|-4-4--4--3-------4-4---|
D|-x-2-(2)-4--x3---3-2---|
A|-4-2--2--x-------2-2---|
E|---0-----2-------------|


play intro, verse, and chorus again, then...

e|---------------|
B|---------------|
G|-4-(3)-4-------|
D|-4--4--2----x4-|
A|-2--4--2-------|
E|----2--0-------|
(there's a man assigned to me....)

e|----------------------------|
B|--4---------------------4---|
G|--4--4-(3)--------------4---|
D|-(2)-4--4---x3-end on -(2)--| second time, slide up from F# to G# before
A|--2--2--4---------------2---| going back to B.
E|--------2-------------------|
(but maybe, i can show you....)



...and back to this until the end.
e|------------|
B|------------|
G|-4-(3)-4----|
D|-4--4--2----|
A|-2--4--2----|
E|----2--0----|
(there's a man assigned to me....)




TAB AND LYRICS COMMENTS:

There is no comments for the total revenge ukulele chords sheet music yet. Please post one now!

© 2019 TabCrawler Online Guitar Tab and Music Lessons Archive