E-play Divan Dan chords

ionicons-v5-k ionicons-v5-j
a b c d e f g h i j k l m n o p q r s t u v w x y z 0-9
 
TabCrawler.ComE / E-play / Divan Dan log in ] [ register ]
TABCRAWLER Online Sheet Music & Lyrics Archive Member Votes: 0 / 5(0 votes)
TAB VIEWS for divan dan chords: 301

To to be able to download PDF tabs, rate, comment & submit guitar tabs, bass tabs, keyboard tab, lyrics and drum tab files you must LOGIN TO TABCRAWLER Online Guitar Tabs & Guitar Pro, Bass Tab, Drum Tabs Archive MEMBERS ONLY AREA.
[PRINT]
Did this chords for divan dan help you?
You must LOGIN to rate this chords.
Help us improve the tab & lyrics archive!

Divan Dan by E-play

Intro:

E|-----9--9--9--9--7------------------|
B|--7-----------------10--7-10--9-----|
G|---------------------------------9--|
D|------------------------------------|
A|------------------------------------|
E|------------------------------------|


E|-----9--9--9--9--7------------------|
B|--7-----------------10--7-10/12--9--|
G|------------------------------------|
D|------------------------------------|
A|------------------------------------|
E|------------------------------------|

Bass tema: F#, A, E, G#

Hajde reci mi
Koliko godina
Nama je potrebno
Da neke stvari prodju

Hajde reci mi
Koliko godina
Od danas jos imamo
Za ono sto nas ceka

Hajde reci mi
Kako je moguce
Da nisam primetila
Da odlazis od mene

Hajde reci mi
Kako ne vidis
Da divan je ovo dan
Nazalost ne za nas


F#m A               E        G#m
      Kako ne vidis da divan dan je

Band page: http://www.eplaymusic.com/
Transkripcija: Stevan Golubovic

TAB AND LYRICS COMMENTS:

There is no comments for the divan dan chords sheet music yet. Please post one now!

© 2020 TabCrawler Online Guitar Tab and Music Lessons Archive