Satellite Calling Birds (album) chords

ionicons-v5-k ionicons-v5-j
a b c d e f g h i j k l m n o p q r s t u v w x y z 0-9
 
TabCrawler.ComS / Satellite / Calling Birds (album) log in ] [ register ]
TABCRAWLER Online Sheet Music & Lyrics Archive Member Votes: 0 / 5(0 votes)
TAB VIEWS for calling birds (album) chords: 82

To to be able to download PDF tabs, rate, comment & submit guitar tabs, bass tabs, keyboard tab, lyrics and drum tab files you must LOGIN TO TABCRAWLER Online Guitar Tabs & Guitar Pro, Bass Tab, Drum Tabs Archive MEMBERS ONLY AREA.
[PRINT]
Did this chords for calling birds (album) help you?
You must LOGIN to rate this chords.
Help us improve the tab & lyrics archive!

Calling Birds (album) by Satellite

xxxxxxxxxxxxxxxxxxxxxxxxxxxxxxxxxxxxxxxxxxxxxxxxxxxxxxxxxxxxxxxxxxxxxxxxxxxxxxxxxxxxxxxxxxxxxx
                                   C A L L I N G   B I R D S ( 2 0 1 3 )
                            T h e  F u l l - A l b u m  G u i t a r   C h o r d s
                                             S a t e l l i t e
xxxxxxxxxxxxxxxxxxxxxxxxxxxxxxxxxxxxxxxxxxxxxxxxxxxxxxxxxxxxxxxxxxxxxxxxxxxxxxxxxxxxxxxxxxxxxx


                   +--------------------------PLEASE NOTE--------------------------+
                   + This file is the work of Ygor and represents his              +
                   + transcription of the album. You may only use this file for    +
                   + private study, scholarship, or research. The contents may not +
                   + be duplicated for use with other websites without written     +
                   + permission. Thank you for understanding. Enjoy.               +
                   +---------------------------------------------------------------+


                    ARTIST:   Satellite
                    ALBUM:    Calling Birds (2013)
                    GENRE:    Alternative/Rock
                    SONGS:    
                              1. Say the Words
                              2. Brooklyn
                              3. Turning On My Own
                              4. Saving Us Tonight
                              5. Silhouette
                              6. Come and Get Me
                              7. Ring the Bells
                              8. God Save the Dream
                              9. You and Me
                             10. What You Need
                             11. Till I Return
                             12. We'll Never Know



xxxxxxxxxxxxxxxxxxxxxxxxxxxxxxxxxxxxxxxxxxxxxxxxxxxxxxxxxxxxxxxxxxxxxxxxxxxxxxxxxxxxxxxxxxxxxxx
 01-                                  S a y   T h e  W o r d s
xxxxxxxxxxxxxxxxxxxxxxxxxxxxxxxxxxxxxxxxxxxxxxxxxxxxxxxxxxxxxxxxxxxxxxxxxxxxxxxxxxxxxxxxxxxxxxx


Transcribed by Ygor



Tunning: E(Standard)
 

CHORDS USED [IN ORDER OF FIRST APPEARANCE]: 
     A    Esus4   E      Bm    Em    Bm*    Bb     A*
e]---0------0-----0------2-----0-----x------x------x-------|
B]---2------0-----0------3-----0-----x------x------x-------|
G]---2------2-----1------4-----0-----7------7------6-------|
D]---2------2-----2------4-----2-----7------7------7-------|
A]---0------2-----2------2-----2-----x------x------x-------|
E]---x------0-----0------------0-----7------6------5-------|



Verse 1:

A
 Plastic eyes
                  Esus4    E
Surrounded by a suicidal urge
          Bm 
To lose control now
             A
And let this go


Verse 2:
A
You're paralyzed
               Esus4   
Trying just to find a way
   E              Bm
To learn to sleep alone now
                    A
That you're on your own



Chorus 1:

A
Say the words
                  Em
Say the words out loud
         Bm          A
Let them out of your soul



Verse 3:
A
And as it is
                   Esus4   
You're hidden underneath this fight
    E              Bm
But sinking like a stone love
         A
So far below



Verse 4:

A
The streets are paved
                      Esus4
With black and yellow lines
           E                Bm        
That never lead you back to home love
             A
Cause you're on your own



Chorus 2:

A
Say the words
                   Em
Say the words out  loud
         Bm          A
Let them out of your soul

We build our dreams
                   Em
And then burn them down
       Bm
To the ground
             A
Till they're gone



Bridge:

   Bm                  Bb                    A*                
e]----------------------------------------------------------------------------------|
B]----------------------------------------------------------------------------------|
G]----7----7----7---7-----7----7----7-----7----6----6---6---6---6----6----6---6-----|
D]----7----7----7---7-----7----7----7-----7----7----7---7---7---7----7----7---7-----|
A]----------------------------------------------------------------------------------|
E]--7----7----7----7----6----6----6----6-----5----5---5---5---5----5----5---5-------|


Bm             Bb            A*
We gotta find a way to love again
          Bm                    Bb             A*
While the words are still there ringing in our heads
Bm                    Bb               A*
The prophets sand the anthems left for dead
          Bm                       
While the words are still there
        Bb                             (A)
They're ringing in, they're ringing in



Outro:

A                           Esus4
We gotta find a way to love again
          E                  Bm                           
While the words are ringing in our heads
                 A
They're ringing in our heads
                                       Esus4
The prophets sang the anthems left for dead
          E                  Bm
While the words are ringing in our heads
                A
They're ringing in our heads


Ending:

A
So say the words
                  Em
Say the words out loud
         Bm           A
Let them out of your soul



xxxxxxxxxxxxxxxxxxxxxxxxxxxxxxxxxxxxxxxxxxxxxxxxxxxxxxxxxxxxxxxxxxxxxxxxxxxxxxxxxxxxxxxxxxxxxxx
02-                                      B r o o k l y n 
xxxxxxxxxxxxxxxxxxxxxxxxxxxxxxxxxxxxxxxxxxxxxxxxxxxxxxxxxxxxxxxxxxxxxxxxxxxxxxxxxxxxxxxxxxxxxxx


Transcribed by Ygor


Tunning: E (Standard) Capo 2nd Fret



CHORDS USED [IN ORDER OF FIRST APPEARANCE] [relative to Capo]:
    Am    Cmaj9    C    G     F     Em
e]---0------0------0----3-----x-----0-------|
B]---1------1------1----0-----1-----0-------|
G]---2------0------0----0-----2-----0-------|
D]---2------0------2----0-----3-----2-------|
A]---0------2------3----2-----3-----2-------|
E]----------------------3-----x-----0-------|



Intro: // Am // Cmaj9 // C //  Am //


Verse 1:

Am  
a whisper out my window
           Cmaj9      C       
i hear the four winds calling
       Cmaj9 Am
I feel  you  waiting

while you lie awake
               Cmaj9     C
for an answer that's not coming 


Chorus 1:

G       Am
is who i am
        F             C    G
another ghost in your bed
               Am  F                C    G      
the shell of a man learning to love again
              Am       F                       C
or a stubborn fool who can't hear a word you've said
G                                  Am
just give me the chance to bury my dead


Verse 2:

Am
i am just a lone 
         Cmaj9   C
a lonely tree in brooklyn
         Cmaj9       Am
climbing towards the skyline

everyone seems to know
            Cmaj9     C
which way i should be turning



Chorus 2:

G       Am
is who i am
        F             C    G
another ghost in your bed
               Am  F                C    G      
the shell of a man learning to love again
              Am       F                        C
or a stubborn fool who can't hear a word you've said
G                                  Am
just give me the chance to bury my dead



Transition:

 // F // C // Em // Am // G // F //C // G // C //



Bridge:

C                      Am
the fire in your eyes,   the taste on my lips   
            F
look what a mess we've made
                     C
a mess we've made of love
                       Am
the fire in your eyes,   the taste on my lips   
            F
look what a mess we've made
                     C G 
a mess we've made of love



Verse 3:

Am                             
is that a fire on the hillside
        Cmaj9    C        Am
or a new horizon burning

cause i can't live a lie
            Cmaj9       C
and i don't know what's true



Chorus/Outro:

G       Am
is who i am
        F             C   G
another ghost in your bed
               Am  F                C    G      
the shell of a man learning to love again
              Am       F                       C
or a stubborn fool who can't hear a word you've said
G                                 Em Am
just give me the chance to bury my dead
      F             C
i'm a ghost in your bed
G              Am  F                C   G            
the shell of a man learning to love again
              Am      F                         C
or a stubborn fool who can't hear a word you've said
G                         
just give me the chance to bury 
                      Am
the chance to bury my dead



xxxxxxxxxxxxxxxxxxxxxxxxxxxxxxxxxxxxxxxxxxxxxxxxxxxxxxxxxxxxxxxxxxxxxxxxxxxxxxxxxxxxxxxxxxxxxx
03-                                T u r n i n g  O n   M y  O w n
xxxxxxxxxxxxxxxxxxxxxxxxxxxxxxxxxxxxxxxxxxxxxxxxxxxxxxxxxxxxxxxxxxxxxxxxxxxxxxxxxxxxxxxxxxxxxx
           
Transcribed by Ygor

Tuning: E (Standard)





CHORDS USED [IN ORDER OF FIRST APPEARANCE]:
    C     F    Em    G    Am   Cmaj9       
e]--0-----x----0-----3----0------0----|
B]--1-----1----0-----0----1------1----|
G]--0-----2----0-----0----2------0----|
D]--2-----3----2-----0----2------0----|
A]--3-----3----2-----2----0------2----|
E]--x-----x----0-----3----x-----------|

+---------------------NOTE Turning On My Own--------------------+
+ During the Intro,transitions and outro use the                +
+ middle finger to perform pull-off                             +
+ and hammer-on techniques on the D string while holding the    +
+ C chord.                                                      +
+---------------------------------------------------------------+

Intro: 

 // C // F // C // Em /// G //(2x)



Verse 1:

C
Secrets don't die
                    Em           G
They leave behind a bitter loss
C                     Em   G
And one more way to find



Pre-Chorus 1:

Am               F        C
That we are only skin and bones
    Am                  F       C    
And hearts don't really turn to stone
    Am            F            C            
And every part of me I've ever known
               G          F
Feels like i'm turning on my own
              (C)
I'm turning on my own
 


Transition 1:

 // C // F // // C // Em /// G // C //



Verse 2:

C
So I'll sleep tonight
                      Em          G  
But that's not what I really want
C                      Em   
Living this way is a lie




Pre-Chorus 2:

    Am              F                 C 
And truth be told I couldn't want you more
    Am             F          C
And I'd go back on all I said before
    Am            F            C
But every part of me I've ever known
               G          F
Feels like I'm turning on my own




Chorus 1:

           Am
I feel the heat in your stare

And I know the voices you hear    
Cmaj9  C
Are    not your own
              Am        
Yeah, there's war in my heart
     G  
Gravity pulls apart
      F
If we carry on



Bridge:

   Am               F          C
Oh let me see those blood shot crying eyes
    Am               F        C
And let me taste the way you say goodbye
      Am            F            C
Cause every part of me I've ever known
               G             F
Feels like I'm turning on my own




Chorus 2:
   Am               F          C
Oh let me see those blood shot crying eyes
    Am               F       C
And let me taste the way you say goodbye
      Am            F            C
Cause every part of me I've ever known
               G             F
Feels like I'm turning on my own
                C     F  C  Em  G
I'm turning on my own


Transition 2:

 // C // F // C // Em //


Outro:
               C       F  C Em         
I'm turning on my own



xxxxxxxxxxxxxxxxxxxxxxxxxxxxxxxxxxxxxxxxxxxxxxxxxxxxxxxxxxxxxxxxxxxxxxxxxxxxxxxxxxxxxxxxxxxxxxx
04-                                 S a v i n g   U s   T o n i g h t
xxxxxxxxxxxxxxxxxxxxxxxxxxxxxxxxxxxxxxxxxxxxxxxxxxxxxxxxxxxxxxxxxxxxxxxxxxxxxxxxxxxxxxxxxxxxxxx


Transcribed by Ygor

Tunning: E (Standard)
 



CHORDS USED [IN ORDER OF FIRST APPEARANCE]:
    C/G    Am    Em    F    G    
e]---0------0-----0----0----3-----|
B]---1------1-----0----1----0-----|
G]---0------2-----0----2----0-----|
D]---2------2-----2----3----0-----|
A]---3------0-----2----3----2-----|
E]---3------------0----x----3-----|



Verse 1:

C/G
Far above the city streets
Am                     Em
Sits the queen of apathy
             F
Watching the rain fall 


Verse 2:

C/G
Staring out the window
Am                               Em
I'm right here but you're still alone
            F
Drowning in it all



Pre-Chorus 1:

Em           F  
Baby talk to me
Em             G
Baby can't you see



Chorus 1:

     F             G            Am
That everything we fail to recognize
          C/G              
Takes its toll and
F                 G          Am
Everything that's eating us alive
         C/G
Kills us slowly
F                   G
You can say there's nothing wrong
Am               C/G
Close your eyes until it's gone
    F              G             Am  Em C/G
But I won't let us die without a fight
              Am  Em  C/G
I'm saving us tonight



Verse 3:

   C/G
So tell me what you're running from
Am                           Em
Don't be afraid to come undone
            F
All you're scared to say
C/G           
Isn't worth the work it takes
   Am                        Em
To keep it in and live this way
             F
With all the heartache



Pre-Chorus 2:

Em           F  
Baby talk to me
Em                G
Don't just let it be



Chorus 2:

      F             G            Am
Cause everything we fail to recognize
          C/G              
Takes its toll and
F                 G          Am
Everything that's eating us alive
        C/G
Kills us slowly
F                   G
You can say there's nothing wrong
Am               C/G
Close your eyes until it's gone
    F              G             Am   Em C/G
But I won't let us die without a fight
                Am  Em C/G
I'm saving us  tonight



Bridge:

    Am            Em
And you'd forgive everyone else
   C/G            
Of what you can't forgive yourself
      Am             Em          
We're all a bunch of crooked souls
C/G                                          
Gripping what we can't let go of
F                  G
We all get to this point in love
Am                C/G
Most get here and just give up
    F              G
But I won't let us die
          Am  Em C/G
Without a fight
              Am  Em C/G
I'm saving us tonight
             Am   Em     C/G     
Im saving us tonight, us tonight
             Am  Em C/G
Im saving us tonight


Outro:

C/G
Far above the city streets
Am                     Em
Sits the queen of apathy
             F
Watching the rain fall 



xxxxxxxxxxxxxxxxxxxxxxxxxxxxxxxxxxxxxxxxxxxxxxxxxxxxxxxxxxxxxxxxxxxxxxxxxxxxxxxxxxxxxxxxxxxxxxx
05-                                 S i l h o u e t t e
xxxxxxxxxxxxxxxxxxxxxxxxxxxxxxxxxxxxxxxxxxxxxxxxxxxxxxxxxxxxxxxxxxxxxxxxxxxxxxxxxxxxxxxxxxxxxxx
     
          
Transcribed by Ygor


Tunning: E (Standard)


CHORDS USED [IN ORDER OF FIRST APPEARANCE]:
     F     C       Am      G
e]---x-----0-------0-------3------|
B]---1-----1-------1-------0------|
G]---2-----0-------2-------0------|
D]---3-----2-------2-------0------|
A]---3-----3-------0-------2------|
E]-------------------------3------|


+-----------------------NOTE------------------------+
+ During All the Song use the                       +
+ middle finger to perform hammer-on                +
+ pull-off hammer-on and pull-off techniques        +
+ 2 times on the G string while holding the F chord +
+---------------------------------------------------+


Intro:

// F // C // F // Am // C //


Verse 1:
C                        Am
Honey your dreams aren't big enough
C                                   Am         F
You're giving everything but you're giving up
                            C    G
Filling in the lines so quietly
                              Am
But sometimes what you get is what you need


Verse 2:
C                             Am
You're waiting in the light behind the clouds
C                                   Am           F
You're rising like the sun we're spinning round
                                C          G
But you're the only girl I've ever touched
                      Am
And baby you are the one I love


Transition 1:

 // F // C // F // Am // F // C // G //


Verse 3:

C                                   Am
You're hammering the nails you've learned to trust
C                        Am             F
Praying for the rain to feel them rust
                           C            G
Sometimes what we have is hard to see
                         Am
And happiness is harder than it seems


Verse 4:

     C                             Am
When you're salting every wound to feel it burn
C                             Am               F
There's fire in your eyes for lessons learned
                               C            G
But you're the only girl I've ever touched
                     Am
And baby you are the one I love


Transition 2:

 // F // C // F // Am // F // C // G //


Chorus:
       C
So how long until I see you

How long until I'm there
Cmaj9   Am
Your  silhouette across the morning

Light shining in your hair
        F
This is all I have to give you
        C
You are all I have to live
            G
And I can't find a way to hold you
                      (C)
But I can say it all again


Outro:

 // F // C // F // Am // F // C // G // C //



xxxxxxxxxxxxxxxxxxxxxxxxxxxxxxxxxxxxxxxxxxxxxxxxxxxxxxxxxxxxxxxxxxxxxxxxxxxxxxxxxxxxxxxxxxxxxx
06-                                C o m e   A n d   G e t  M e
xxxxxxxxxxxxxxxxxxxxxxxxxxxxxxxxxxxxxxxxxxxxxxxxxxxxxxxxxxxxxxxxxxxxxxxxxxxxxxxxxxxxxxxxxxxxxx


Transcribed by Ygor

Tuning: E



CHORDS USED [IN ORDER OF FIRST APPEARANCE]:
    Dm    G    F    A    Bb    C
e]---0----0----1----5----6-----0------|
B]---6----0----1----5----6-----1------|
G]---7----4----2----6----7-----0------|
D]---7----5----3----7----8-----2------|
A]---5----5----3----7----8-----3------|
E]--------3----1----5----6------------|



Intro:  // Dm // G // (2x)



Verse 1:

Dm                      G
The wolves, I know, are on their way
                Dm
Breathing heavy
                   G
But I'm not one to be afraid

So bring all you've got



Chorus 1:

    F                 Dm
Oh, I say hell has no fury
          F
So if you want me
                 Dm
You can come and get me



Transition 1:

 // Dm // G // 


Verse 2:

Dm               G
Born no one, without a name
         Dm
Ordinany
                     G
But I'm too young to die this way
                      
So bring all you've got



Chorus 2:

    F                 Dm
Oh, I say hell has no fury
          F
So if you want me
                 Dm
You can come and get me



Transition 2: 

// F // A //



Bridge

A                  Bb
Cause I just wanna feel something
       F C
That's mine
                   F                  
It isn't worth the pain
            A
You leave behind
                 Bb
So bring nothing less than everything
     F C
This time



Interlude :

 // Dm // G // 



Verse 3:

Dm                   G              
So weapons down, you sons of change
                      Dm
With hearts-A-beating 
                      G
Cause in the air is a heavy rain
                     
So in one voice, sing



Chorus 3:

F                 Dm
I say hell has no fury
          F
So if you want me
                 Dm
You can come and get me



Ending:

/// Dm /// G // Dm /// G /// 




xxxxxxxxxxxxxxxxxxxxxxxxxxxxxxxxxxxxxxxxxxxxxxxxxxxxxxxxxxxxxxxxxxxxxxxxxxxxxxxxxxxxxxxxxxxxxxxxx
07-                                   R i n g  T h e  B e l l s
xxxxxxxxxxxxxxxxxxxxxxxxxxxxxxxxxxxxxxxxxxxxxxxxxxxxxxxxxxxxxxxxxxxxxxxxxxxxxxxxxxxxxxxxxxxxxxxxx

Transcribed by Ygor


Tunning: E (Standard)



  Intro:

    A                          C#m
e]--------------------------|-----------------------------|
B]--------------------------|-----------------------------|
G]-----6----6----6------6---|-----9----9----9-----9-------|(2x)
D]--------------------------|-----------------------------|
A]--------------------------|-----------------------------|
E]---5----5----5------5-----|---9----9----9-----9---------|


Verse 1:

    A                          C#m                           D                                       
e]--------------------------|-----------------------------|-----------------------------------------|
B]--------------------------|-----------------------------|-----------------------------------------|
G]-----6----6----6------6---|-----9----9----9-----9-------|-----11----11------11----11-----11----11-|
D]--------------------------|-----------------------------|-----------------------------------------|
A]--------------------------|-----------------------------|-----------------------------------------|
E]---5----5----5------5-----|---9----9----9-----9---------|--10----10-----10-----10----10----10-----|

   C#m               Bm
e]----------------|---------------------------|
B]----------------|---------------------------|
G]------9----9----|----7-----7------7-----7---|
D]----------------|---------------------------|
A]----------------|---------------------------|
E]--9-----9-------|--7----7------7-----7------|


A        C#m   A            C#m          A
Find the words  that make it right again
        C#m   A         C#m                 D      C#m
Calling birds  help you make it through the night
          D   Bm           
It's just enough  



Verse 2:

    A                          C#m                           D                                       
e]--------------------------|-----------------------------|-----------------------------------------|
B]--------------------------|-----------------------------|-----------------------------------------|
G]-----6----6----6------6---|-----9----9----9-----9-------|-----11----11------11----11-----11----11-|
D]--------------------------|-----------------------------|-----------------------------------------|
A]--------------------------|-----------------------------|-----------------------------------------|
E]---5----5----5------5-----|---9----9----9-----9---------|--10----10-----10-----10----10----10-----|

   C#m               Bm
e]----------------|---------------------------|
B]----------------|---------------------------|
G]------9----9----|----7-----7------7-----7---|
D]----------------|---------------------------|
A]----------------|---------------------------|
E]--9-----9-------|--7----7------7-----7------|


A         C#m  A        C#m           A
to find a way   to open up once again
             C#m   A        C#m             D    C#m  D  Bm 
And learn to take   all the beauty that's inside



Chorus 1:

   D                                  E                               C#m 
e]---------------------------------|--------------------------------|-------------------------|
B]---------------------------------|--------------------------------|-------------------------|
G]-----11------11-----11------11---|-----13------13------13-----13--|-----9-----9----9-----9--|
D]---------------------------------|--------------------------------|-------------------------|
A]---------------------------------|--------------------------------|-------------------------|
E]--10-----10-----10------10-------|--12-----12------12-----12------|--9----9-----9-----9-----|

   F#m                        Bm                              A                         
e]-------------------------|-------------------------------|----------------------------|
B]-------------------------|-------------------------------|----------------------------|
G]----14----14---14----14--|-------9------9-------9------9-|------6-----6------6-----6--|
D]-------------------------|-------------------------------|----------------------------|
A]-------------------------|-------------------------------|----------------------------|
E]-14---14----14----14-----|---9------9-------9------9-----|--5------5------5-----5-----|

     D                   E
Well ring the bells that lead you home
          C#m             D
Cause the only truth I've ever known
                     E                  C#m   D
Is that nothing ever hurts us more than love
             E                   
So circle up your best friends
          C#m           D
And we'll celebrate the way it ends
            E      F#m E          
At least we live tonight
   D        C#m  Bm   A
At least we live   tonight


Transition 1:

    A                          C#m
e]--------------------------|-----------------------------|
B]--------------------------|-----------------------------|
G]-----6----6----6------6---|-----9----9----9-----9-------|(2x)
D]--------------------------|-----------------------------|
A]--------------------------|-----------------------------|
E]---5----5----5------5-----|---9----9----9-----9---------|



Verse 3:

    A                          C#m                           D                                       
e]--------------------------|-----------------------------|-----------------------------------------|
B]--------------------------|-----------------------------|-----------------------------------------|
G]-----6----6----6------6---|-----9----9----9-----9-------|-----11----11------11----11-----11----11-|
D]--------------------------|-----------------------------|-----------------------------------------|
A]--------------------------|-----------------------------|-----------------------------------------|
E]---5----5----5------5-----|---9----9----9-----9---------|--10----10-----10-----10----10----10-----|

   C#m               Bm
e]----------------|---------------------------|
B]----------------|---------------------------|
G]------9----9----|----7-----7------7-----7---|
D]----------------|---------------------------|
A]----------------|---------------------------|
E]--9-----9-------|--7----7------7-----7------|

A          C#m   A
Scream out loud
          C#m        A             
Until you feel again  
             C#m A           C#m          D       C#m  D  Bm  
And hear the sound of how to heal an aching heart



Verse 4:

    A                          C#m                           D                                       
e]--------------------------|-----------------------------|-----------------------------------------|
B]--------------------------|-----------------------------|-----------------------------------------|
G]-----6----6----6------6---|-----9----9----9-----9-------|-----11----11------11----11-----11----11-|
D]--------------------------|-----------------------------|-----------------------------------------|
A]--------------------------|-----------------------------|-----------------------------------------|
E]---5----5----5------5-----|---9----9----9-----9---------|--10----10-----10-----10----10----10-----|

   C#m               Bm
e]----------------|---------------------------|
B]----------------|---------------------------|
G]------9----9----|----7-----7------7-----7---|
D]----------------|---------------------------|
A]----------------|---------------------------|
E]--9-----9-------|--7----7------7-----7------|

           A            C#m    A
And those that know you most
             C#m           A
Can help you to live again
            C#m   A
So keep the close
         C#m              D    C#m D Bm
As you're making your new start



Chorus 2:

   D                                  E                               C#m 
e]---------------------------------|--------------------------------|-------------------------|
B]---------------------------------|--------------------------------|-------------------------|
G]-----11------11-----11------11---|-----13------13------13-----13--|-----9-----9----9-----9--|
D]---------------------------------|--------------------------------|-------------------------|
A]---------------------------------|--------------------------------|-------------------------|
E]--10-----10-----10------10-------|--12-----12------12-----12------|--9----9-----9-----9-----|

   F#m                        Bm                              A                         
e]-------------------------|-------------------------------|----------------------------|
B]-------------------------|-------------------------------|----------------------------|
G]----14----14---14----14--|-------9------9-------9------9-|------6-----6------6-----6--|
D]-------------------------|-------------------------------|----------------------------|
A]-------------------------|-------------------------------|----------------------------|
E]-14---14----14----14-----|---9------9-------9------9-----|--5------5------5-----5-----|

     D                   E
Well ring the bells that lead you home
          C#m             D
Cause the only truth I've ever known
                     E                  C#m   D
Is that nothing ever hurts us more than love
             E                   
So circle up your best friends
          C#m           D
And we'll celebrate the way it ends
            E      F#m E          
At least we live tonight
   D        C#m  Bm   A
At least we live   tonight



Bridge:


    Em                              D
e]-------------------------------|--------------------------------|
B]-------------------------------|--------------------------------|
G]-----12-----12------12-----12--|----11-----11-----11-----11-----|
D]-------------------------------|--------------------------------|
A]-------------------------------|--------------------------------|
E]--12-----12-----12-----12------|--10-----10-----10----10--------|

    Bm                            A                          Dm7
e]-----------------------------|---------------------------|--------------------------|
B]-----------------------------|---------------------------|--------------------------|
G]----7-----7------7-----7-----|------6----6----6------6---|----10----10----10----10--|
D]-----------------------------|---------------------------|--------------------------|
A]-----------------------------|---------------------------|--------------------------|
E]--7----7------7-----7--------|---5----5----5-----5-------|-10----10----10----10-----|

    C#m                        Bb7
e]---------------------------|-----------------------|
B]---------------------------|-----------------------|
G]-----9-----9----9-----9----|-----7----7----7----7--|
D]---------------------------|-----------------------|
A]---------------------------|-----------------------|
E]---9----9----9-----9-------|--6----6----6----6-----|

    Em              D
The day you finally turn to dust
    Bm                A
And finally hear your name
       Em               D          A
Brings colors that will never fade away
    Em                D
Sometimes the best in all of us
    Dm7                  C#m              Bm
Can still break down and still give up on love
           Bb7    (A)
But it's never gone



Transition 2:

    A                          C#m
e]--------------------------|-----------------------------|
B]--------------------------|-----------------------------|
G]-----6----6----6------6---|-----9----9----9-----9-------|(4x)
D]--------------------------|-----------------------------|
A]--------------------------|-----------------------------|
E]---5----5----5------5-----|---9----9----9-----9---------|



Chorus 3:
         
   D                                  E                               C#m 
e]---------------------------------|--------------------------------|-------------------------|
B]---------------------------------|--------------------------------|-------------------------|
G]-----11------11-----11------11---|-----13------13------13-----13--|-----9-----9----9-----9--|
D]---------------------------------|--------------------------------|-------------------------|
A]---------------------------------|--------------------------------|-------------------------|
E]--10-----10-----10------10-------|--12-----12------12-----12------|--9----9-----9-----9-----|

   F#m                        Bm                              A                         
e]-------------------------|-------------------------------|----------------------------|
B]-------------------------|-------------------------------|----------------------------|
G]----14----14---14----14--|-------9------9-------9------9-|------6-----6------6-----6--|
D]-------------------------|-------------------------------|----------------------------|
A]-------------------------|-------------------------------|----------------------------|
E]-14---14----14----14-----|---9------9-------9------9-----|--5------5------5-----5-----|

     D                   E
Well ring the bells that lead you home
          C#m             D
Cause the only truth I've ever known
                     E                  C#m   D
Is that nothing ever hurts us more than love
             E                   
So circle up your best friends
          C#m           D
And we'll celebrate the way it ends
            E      F#m E          
At least we live tonight
   D        C#m  Bm   A
At least we live   tonight



xxxxxxxxxxxxxxxxxxxxxxxxxxxxxxxxxxxxxxxxxxxxxxxxxxxxxxxxxxxxxxxxxxxxxxxxxxxxxxxxxxxxxxxxxxxxxxx
08-                              G o d  S a v e  T h e  D r e a m
xxxxxxxxxxxxxxxxxxxxxxxxxxxxxxxxxxxxxxxxxxxxxxxxxxxxxxxxxxxxxxxxxxxxxxxxxxxxxxxxxxxxxxxxxxxxxxx


Transcribed by Ygor


Tunning: E (Standard)



CHORDS USED [IN ORDER OF FIRST APPEARANCE]: 
    A     Esus4   E    F#m11    D      Dm*    Am    C    Gm    Em    Dm    G     F
e]--0-------0-----0------0------2------1------0-----0-----3-----0-----5----3-----x-----|
B]--2-------0-----0------0------3------3------1-----1-----3-----0-----6----0-----1-----|
G]--2-------2-----1------2------2------2------2-----0-----3-----0-----7----0-----2-----|
D]--2-------2-----2------4------0------0------2-----2-----5-----2-----7----0-----3-----|
A]--0-------2-----2------4--------------------0-----3-----5-----2-----5----2-----3-----|
E]----------0-----0------x--------------------------------3-----0----------3-----x-----|



Verse 1:

A                         Esus4 E
A million waves across the  ocean
F#m11                D
Somewhere waiting in the wind
A                        Esus4 E
A million words still left unspoken
F#m11                   D
Without their places to begin



Verse 2:

A                           Esus4 E
I'd give my life to stop this bleeding
F#m11                    D 
if you could somehow turn around
A                             Esus4 E
And free the ghosts inside this feeling
F#m11                   D 
That we're slowly going down



Pre-Chorus 1:

    Dm*      Am
God save the dream 
   C        Gm
We need the most
    Dm*     Am    N/C
And lead us safely on



Chorus 1:

A                                     
Tell me you see me or look in my eyes
        Dm
Cause I cannot take what you cannot hide
    A
I'm watching you leave me without a goodbye
      Dm                          
And I cannot take what you cannot hide



Interlude:

 // A // Dm //



Verse :

A                               Esus4 E
There's slight of hand inside our symmetry
F#m11                    D  
Trick the eyes from green to red
A                           Esus4 E
A lesser view than what you say to me
F#m11                      D  
Is sneaking up inside your head




Pre-Chorus 2:

    Dm*      Am
God save the dream 
   C        Gm
We need the most
    Dm*     Am     Em
And lead us safely on



Chorus 2:
A                                     
Tell me you see me or look in my eyes
        Dm
Cause I cannot take what you cannot hide
    A
I'm watching you leave me without a goodbye
      Dm                          
And I cannot take what you cannot hide



Transition:

 // A // Dm // (2x)



Bridge:
       C                           G
You're safe for once in your life
                            Am
Sleeping alone on your side
                                      F
How can I make this right without you here
    Am
I'm ten feet from the earth down below
       F
You're tempted to unlearn what you know
     C                               G     Am  F
That nothing could drag me away from you


Outro:

    C
God save the dream 
            G
We need the most
    Am      F      C
And lead us safely on



xxxxxxxxxxxxxxxxxxxxxxxxxxxxxxxxxxxxxxxxxxxxxxxxxxxxxxxxxxxxxxxxxxxxxxxxxxxxxxxxxxxxxxxxxxxxxxx
09-                                      Y o u  &  M e
xxxxxxxxxxxxxxxxxxxxxxxxxxxxxxxxxxxxxxxxxxxxxxxxxxxxxxxxxxxxxxxxxxxxxxxxxxxxxxxxxxxxxxxxxxxxxxx


Transcribed by Ygor


Tunning: E (Standard) 



 CHORDS USED [IN ORDER OF FIRST APPEARANCE]: 
     C    G     F    Cmaj9     Am      Em    E  
e]---0----3-----0------0-------0-------0-----0-----|
B]---1----0-----1------1-------1-------0-----0-----|
G]---0----0-----2------0-------2-------0-----1-----|
D]---2----0-----3------0-------2-------2-----2-----|
A]---3----2-----3------2-------0-------2-----2-----|
E]--------3----------------------------0-----0-----|



Intro:

// C // G // F // C //


Verse 1:

C                          G   
Guess I don't really know 
                         F
How to have and to hold
                                  C
But I'll save my goodbye for my dying day



Verse 2:

C                      G
It's too heavy a load 
                            F
To try reap what I've sown
                          C
And we can't afford to waste away



Pre-Chorus 1:

C       Cmaj9  Am
So I've gotta  find that something
       F
I felt inside you again
    Am                     G
I'm trying to forgive eternally


Chorus 1:

          C                                Em
Cause I believed that love would lead us safely home
      F                  C Cmaj9 G
And I believed you hurt  alone
      C                                     Em
But I believed that what we made, we'd made of stone
      F                  C Cmaj9 G
Now I believe that I was wrong
         F                         G
You see, love is not something you fall into
C         Cmaj9 Am
Without a reckoning 
       F         G                  C
So I'm trying to believe in you and me



Transition:

// C // G // F // C //



Verse 2:

C                            G   
Well you're heat to the bone 
                        F
And I'm cold as a stone
                           C
And we can't survive without a change


Verse 3:
C                          G
It's my love that you want
                          F
And I'm trying to move on
                            C
To see what we've got for better days



Pre-Chorus 2:

C       Cmaj9  Am
But I've gotta find that something
       F
I felt inside you again
    Am                     G
I'm trying to forgive eternally



Chorus 2:

          C                                 Em
Cause I believed that love would lead us safely home
      F                 C Cmaj9 G
And I believed you hurt  alone
        C                                 Em                       
But I believed that what we made, we made of stone
        F                C Cmaj9 G
Now I believe that I was  wrong



Outro:

         Am                        E
You see, love is not something you fall into
    F          C   Cmaj9 
Without a reckoning 
        Am                           E       
And the pain is not just what you've put me through
     F             C Cmaj9 Am
It's watching you suffering
          F         G                  C
While I'm trying to believe in you and me


Ending:

// C // G // F // C // (2X)




xxxxxxxxxxxxxxxxxxxxxxxxxxxxxxxxxxxxxxxxxxxxxxxxxxxxxxxxxxxxxxxxxxxxxxxxxxxxxxxxxxxxxxxxxxxxxxx
10-                                 W h a t  Y o u   N  e e d
xxxxxxxxxxxxxxxxxxxxxxxxxxxxxxxxxxxxxxxxxxxxxxxxxxxxxxxxxxxxxxxxxxxxxxxxxxxxxxxxxxxxxxxxxxxxxxx


Transcribed by Ygor

Tunning: E (Standard)
 


CHORDS USED [IN ORDER OF FIRST APPEARANCE]:
     F#m     A     Esus4     E     A*    Bm*    Bm     
e]-------------------0-------0-----5------7-----2--------|
B]----2------2-------0-------0-----5------7-----3--------|
G]----2------2-------2-------1-----6------7-----4--------|
D]----4------2-------2-------2-----7------9-----4--------|
A]----4------0-------2-------2-----7------9-----2--------|
E]----2--------------0-------0-----5------7--------------|




Verse 1:

F#m        A                  Esus4   E
Give me a chance to break the silence
F#m        A             E
Give me a chance to recognize



Interlude:

 // F#m // A* // Bm* // (2x)



Verse 2:

F#m              A                Esus4   E
That if theres a way, we're gonna find it
F#m             A            E
And we're gonna make it out alive


Pre-Chorus 1:

            Bm
Cause you'd give me back 
                           A
More than all I had if you needed 
    E       Bm
You needed
                           E
Another chance to make it  right



Chorus 1:

        F#m     A       E      Bm
Is this really what you wanted
        F#m    A        Bm
Is this really what you need



Verse 3:

F#m         A                  Esus4   E
Time is an earth that's slowly turning
F#m               A               E
And these are our moments growing cold



Pre-Chorus 2:

Bm                             A         E
So give us the truth before it blinds us
Bm                                 E
Cause there's not a chance I'm letting go



Chorus 2:

        F#m     A       E      Bm
Is this really what you wanted
        F#m     A       E     
Is this really what you need
        Bm   A         E            F#m A* Bm*                
Is this everything you dreamed it to  be



Bridge:
A                             E
Give me peace of mind to wait
                              Bm
Or tell me how to find my way back
     F#m     A
Back to you
                           E
All I am is dust and faith
                         Bm
Holding on to find my way back
     A 
Back to you


Transition:

 // F#m  // A  // Esus4 // E //



Chorus 3:

        F#m     A       E      Bm
Is this really what you wanted
        F#m     A       E      
Is this really what you need
        Bm   A         E             F#m A* Bm*                
Is this everything you dreamed it to  be


Outro:

F#m              A*            Bm*
Give me peace of mind to wait
                           F#m
Or tell me how to find my way
                 A*         Bm*
Give me truth at any cost
                            F#m
Give me more than what was lost




xxxxxxxxxxxxxxxxxxxxxxxxxxxxxxxxxxxxxxxxxxxxxxxxxxxxxxxxxxxxxxxxxxxxxxxxxxxxxxxxxxxxxxxxxxxxxxx
11-                                  T i l l  I  R e t u r n
xxxxxxxxxxxxxxxxxxxxxxxxxxxxxxxxxxxxxxxxxxxxxxxxxxxxxxxxxxxxxxxxxxxxxxxxxxxxxxxxxxxxxxxxxxxxxxx


Transcribed by Ygor


Tunning: E (Standard) Capo 2nd Fret




CHORDS USED [IN ORDER OF FIRST APPEARANCE] [relative to Capo]:
     C9     C      F      G     Am
e]---0------0------x------3-----0--------|
B]---1------1------1------0-----1--------|
G]---0------0------2------0-----2--------|
D]---0------2------3------0-----2--------|
A]---3------3------3------2-----0--------|
E]-----------------x------3--------------|


+------------------------NOTE Till I Return---------------------+
+ During All the Song In C9 to C use the                        +
+ middle finger to perform hammer-on technique on the D string  +      
+---------------------------------------------------------------+


Verse 1:

C9        C
There's a girl who waits for me across
    F C
the ocean
C9        C                     F  C
There's a girl who waits for me beyond
    G
the sea
          C                        F  C
So keep a slow, steady wind always blowing
       Am             G        C    F  C
Till I return or they carry me home

Verse 2:

C9       C
You've a heart made of gold I hold so
F   C
sweetly
C9       C                 F   C    G
You've a heart made for me and me  alone
          C                         F  C
So keep a slow, steady heart gently beating
       F              G        C    F  C
Till I return or they carry me home

Chorus 1:

         F  C
Sing alleluia
       F  C
Oh alleluia
         F G Am
Sing alleluia
       F              G        C
Till I return or they carry me home


Verse 2:

C9        C                            F   C
There's a light that will bring us the morning
C9        C               F    C        G
There's a light that will roll away the stones
          C                         F   C
So keep a slow, steady flame always burning
       Am             G        C
Till I return or they carry me home

Chorus 2:

         F C
Sing alleluia
       F C
Oh alleluia
         F G Am
Sing alleluia
       F              G        C
Till I return or they carry me home


Outro:

       F              G        C
Till I return or they carry me home
       F              G        C
Till I return or they carry me home



                                  
xxxxxxxxxxxxxxxxxxxxxxxxxxxxxxxxxxxxxxxxxxxxxxxxxxxxxxxxxxxxxxxxxxxxxxxxxxxxxxxxxxxxxxxxxxxxxxx
12-                               W e ' l l  N e v e r  K n o w
xxxxxxxxxxxxxxxxxxxxxxxxxxxxxxxxxxxxxxxxxxxxxxxxxxxxxxxxxxxxxxxxxxxxxxxxxxxxxxxxxxxxxxxxxxxxxxx
 
Transcribed by Ygor 
 
 
Tunning: E (Standard) 




Verse 1: 
 
    A                                            Bm
e]---------------------------------------------|---------------------------------------------|
B]---------------------------------------------|---------------------------------------------|
G]-----6----6----6----6----6----6-----6-----6--|----7----7-----7-----7----7-----7----7----7--|
D]---------------------------------------------|---------------------------------------------|
A]---------------------------------------------|---------------------------------------------|
E]--5----5----5----5----5----5-----5-----5-----|--7----7----7-----7-----7----7----7----7-----|
 
   F#m                                         E
e]-------------------------------------------|-------------------------------------------|
B]-------------------------------------------|-------------------------------------------|
G]----2----2----2-----2----2----2----2----2--|---1----1-----1----1----1----1----1----1---|
D]-------------------------------------------|-------------------------------------------|
A]-------------------------------------------|-------------------------------------------|
E]--2----2---2-----2----2----2----2----2-----|-0----0----0-----0----0----0----0----0-----|
 
    A 
For all that we've done wrong we've never 
Bm 
lost it 
       F#m                       E 
We've never learned the art of letting go 
 
 
 
 
Verse 2: 
 
    A                                            Bm
e]---------------------------------------------|---------------------------------------------|
B]---------------------------------------------|---------------------------------------------|
G]-----6----6----6----6----6----6-----6-----6--|----7----7-----7-----7----7-----7----7----7--|
D]---------------------------------------------|---------------------------------------------|
A]---------------------------------------------|---------------------------------------------|
E]--5----5----5----5----5----5-----5-----5-----|--7----7----7-----7-----7----7----7----7-----|
 
   F#m                                         E
e]-------------------------------------------|-------------------------------------------|
B]-------------------------------------------|-------------------------------------------|
G]----2----2----2-----2----2----2----2----2--|---1----1-----1----1----1----1----1----1---|
D]-------------------------------------------|-------------------------------------------|
A]-------------------------------------------|-------------------------------------------|
E]--2----2---2-----2----2----2----2----2-----|-0----0----0-----0----0----0----0----0-----|

    A                                  Bm 
The way it feels to blindly search the darkness 
    F#m                 E 
The way it feels to live alone 
 
 
 
 
Pre-Chorus 1: 
 
   F#m                                           E
e]----------------------------------------------|-------------------------------------------|
B]----------------------------------------------|-------------------------------------------|
G]----2-----2----2------2----2----2----2----2---|---1----1-----1----1----1----1----1----1---|(2X)
D]----------------------------------------------|-------------------------------------------|
A]----------------------------------------------|-------------------------------------------|
E]--2----2-----2-----2-----2----2----2----2-----|-0----0----0-----0----0----0----0----0-----|
 
            F#m E
We'll never  know 
F#m E 
 know 

 
Chorus 1: 
 
 
   Bm                                          A
e]------------------------------------------|--------------------------------------------|
B]------------------------------------------|--------------------------------------------|
G]----7-----7----7----7----7----7----7---7--|----6----6----6----6-----6----6-----6----6--|
D]------------------------------------------|--------------------------------------------|
A]------------------------------------------|--------------------------------------------|
E]--7----7-----7----7----7----7----7---7----|--5----5----5----5----5-----5-----5----5----|
 
   F#m                                            E 
e]----------------------------------------------|-------------------------------------------|
B]----------------------------------------------|-------------------------------------------|
G]----2----2-----2-----2----2-----2----2-----2--|---1----1-----1----1----1----1----1----1---|
D]----------------------------------------------|-------------------------------------------|
A]----------------------------------------------|-------------------------------------------|
E]--2----2----2-----2----2-----2----2-----2-----|-0----0----0-----0----0----0----0----0-----|
 
   G#m7    F#m     Bm                   E
e]--------------------------------------------------------------|
B]--------------------------------------------------------------|
G]---4-------2-------7----7----7----7-----1----1----1----1---1--|
D]--------------------------------------------------------------|
A]--------------------------------------------------------------|
E]-4---4---2---2---7----7----7---7------0----0----0----0---0----|
 
         Bm        A       F#m    E 
That the stones we roll up to our graves 
     Bm       A          E 
Will work our fingers to the bone 
          Bm    A     F#m     E 
But we're never gonna have to face 
     G#m7  F#m   Bm    E 
This brave new   world alone 
 
 
 
 
Verse 3: 
 
    A                                            Bm
e]---------------------------------------------|---------------------------------------------|
B]---------------------------------------------|---------------------------------------------|
G]-----6----6----6----6----6----6-----6-----6--|----7----7-----7-----7----7-----7----7----7--|
D]---------------------------------------------|---------------------------------------------|
A]---------------------------------------------|---------------------------------------------|
E]--5----5----5----5----5----5-----5-----5-----|--7----7----7-----7-----7----7----7----7-----|
 
   F#m                                         E
e]-------------------------------------------|-------------------------------------------|
B]-------------------------------------------|-------------------------------------------|
G]----2----2----2-----2----2----2----2----2--|---1----1-----1----1----1----1----1----1---|
D]-------------------------------------------|-------------------------------------------|
A]-------------------------------------------|-------------------------------------------|
E]--2----2---2-----2----2----2----2----2-----|-0----0----0-----0----0----0----0----0-----|
 
    A                              Bm 
The tempests in my mind rage on in silence 
    F#m                        E 
And the dogs keep pull against the ropes 
 
 
 
Verse 4: 
 
    A                                            Bm
e]---------------------------------------------|---------------------------------------------|
B]---------------------------------------------|---------------------------------------------|
G]-----6----6----6----6----6----6-----6-----6--|----7----7-----7-----7----7-----7----7----7--|
D]---------------------------------------------|---------------------------------------------|
A]---------------------------------------------|---------------------------------------------|
E]--5----5----5----5----5----5-----5-----5-----|--7----7----7-----7-----7----7----7----7-----|
 
   F#m                                         E
e]-------------------------------------------|-------------------------------------------|
B]-------------------------------------------|-------------------------------------------|
G]----2----2----2-----2----2----2----2----2--|---1----1-----1----1----1----1----1----1---|
D]-------------------------------------------|-------------------------------------------|
A]-------------------------------------------|-------------------------------------------|
E]--2----2---2-----2----2----2----2----2-----|-0----0----0-----0----0----0----0----0-----|

    A                            Bm 
And death we know is someday gonna 
 
find us 
    F#m                    E 
But can it really take its toll 
 
 
 
 
Pre-Chorus 2: 
 
   F#m                                            E
e]----------------------------------------------|-------------------------------------------|
B]----------------------------------------------|-------------------------------------------|
G]----2-----2----2------2----2----2----2----2---|---1----1-----1----1----1----1----1----1---|
D]----------------------------------------------|-------------------------------------------|
A]----------------------------------------------|-------------------------------------------|
E]--2----2-----2-----2-----2----2----2----2-----|-0----0----0-----0----0----0----0----0-----|
 
            F#m E
We'll never  know 
 
 
Chorus 2: 
 
   Bm                                          A
e]------------------------------------------|--------------------------------------------|
B]------------------------------------------|--------------------------------------------|
G]----7-----7----7----7----7----7----7---7--|----6----6----6----6-----6----6-----6----6--|
D]------------------------------------------|--------------------------------------------|
A]------------------------------------------|--------------------------------------------|
E]--7----7-----7----7----7----7----7---7----|--5----5----5----5----5-----5-----5----5----|
 
   F#m                                            E 
e]----------------------------------------------|-------------------------------------------|
B]----------------------------------------------|-------------------------------------------|
G]----2----2-----2-----2----2-----2----2-----2--|---1----1-----1----1----1----1----1----1---|
D]----------------------------------------------|-------------------------------------------|
A]----------------------------------------------|-------------------------------------------|
E]--2----2----2-----2----2-----2----2-----2-----|-0----0----0-----0----0----0----0----0-----|
 
   G#m7    F#m     Bm                   E
e]--------------------------------------------------------------|
B]--------------------------------------------------------------|
G]---4-------2-------7----7----7----7-----1----1----1----1---1--|
D]--------------------------------------------------------------|
A]--------------------------------------------------------------|
E]-4---4---2---2---7----7----7---7------0----0----0----0---0----|
 
     Bm       A        F#m    E 
The stones we roll out to our graves 
     Bm       A          E 
Will work our fingers to the bone 
          Bm    A     F#m     E 
But we're never gonna have to face 
     G#m7  F#m   Bm    E 
This brave new   world alone 
 
 
 
 
Bridge: 
 
   Bm                                         F#m
e]-------------------------------------------|-------------------------------------------|
B]-------------------------------------------|-------------------------------------------|
G]----7----7----7-----7----7----7----7----7--|----2----2----2----2----2-----2----2-----2-|
D]-------------------------------------------|-------------------------------------------|
A]-------------------------------------------|-------------------------------------------|
E]--7----7----7-----7----7----7----7----7----|--2----2----2----2----2----2----2-----2----|

    A                                          E
e]--------------------------------------------|-------------------------------------------|
B]--------------------------------------------|-------------------------------------------|
G]----6-----6----6----6-----6----6-----6----6-|---1----1-----1----1-----1----1----1----1--|
D]--------------------------------------------|-------------------------------------------|
A]--------------------------------------------|-------------------------------------------|
E]--5----5----5----5-----5----5-----5-----5---|-0----0----0-----0----0-----0----0----0----|
 
Bm 
Tell me, love 
   F#m 
We have enough 
   A                      E 
To last us, enough to see us through 
      Bm 
Cause who I am 
   F#m 
Is still a man 
    A                     (Bm) 
But just the shape without you 
 
 
 
Transition: 
 
   F#m                                           E
e]----------------------------------------------|-------------------------------------------|
B]----------------------------------------------|-------------------------------------------|
G]----2-----2----2------2----2----2----2----2---|---1----1-----1----1----1----1----1----1---|(4x)
D]----------------------------------------------|-------------------------------------------|
A]----------------------------------------------|-------------------------------------------|
E]--2----2-----2-----2-----2----2----2----2-----|-0----0----0-----0----0----0----0----0-----|
 
 
 
Chorus 3: 
 
   Bm                                          A
e]------------------------------------------|--------------------------------------------|
B]------------------------------------------|--------------------------------------------|
G]----7-----7----7----7----7----7----7---7--|----6----6----6----6-----6----6-----6----6--|
D]------------------------------------------|--------------------------------------------|
A]------------------------------------------|--------------------------------------------|
E]--7----7-----7----7----7----7----7---7----|--5----5----5----5----5-----5-----5----5----|
 
   F#m                                            E 
e]----------------------------------------------|-------------------------------------------|
B]----------------------------------------------|-------------------------------------------|
G]----2----2-----2-----2----2-----2----2-----2--|---1----1-----1----1----1----1----1----1---|
D]----------------------------------------------|-------------------------------------------|
A]----------------------------------------------|-------------------------------------------|
E]--2----2----2-----2----2-----2----2-----2-----|-0----0----0-----0----0----0----0----0-----|
 
   G#m7    F#m     Bm                   E
e]--------------------------------------------------------------|
B]--------------------------------------------------------------|
G]---4-------2-------7----7----7----7-----1----1----1----1---1--|
D]--------------------------------------------------------------|
A]--------------------------------------------------------------|
E]-4---4---2---2---7----7----7---7------0----0----0----0---0----|
 
    Bm        A        F#m    E 
The stones we roll out to our graves 
     Bm       A          E 
Will work our fingers to the bone 
          Bm    A     F#m     E 
But we're never gonna have to face 
     G#m7  F#m   Bm    E 
This brave new   world alone 
     G#m7  F#m   Bm    (E)
This brave new   world  alone




xxxxxxxxxxxxxxxxxxxxxxxxxxxxxxxxxxxxxxxxxxxxxxxxxxxxxxxxxxxxxxxxxxxxxxxxxxxxxxxxxxxxxxxxxxxxxxx
                                      A n y   Q u e s t i o n s ?
xxxxxxxxxxxxxxxxxxxxxxxxxxxxxxxxxxxxxxxxxxxxxxxxxxxxxxxxxxxxxxxxxxxxxxxxxxxxxxxxxxxxxxxxxxxxxxx


If you have any questions regarding anything in this guide, feel free to message me over here on
Ultimate Guitar. I'll try and respond as quickly as possible, and I'm more than happy to help out
if I can. Any corrections may also be messaged to me, but I have done my best to double-check
(and triple-check) everything in here. But, there's often that pesky little mistake that seems to
stick out like a sore thumb to everyone else, although I never noticed inputting the data wrongly!

Lastly, the content here is as correct as I can get it. I've tabbed this out in the manner which
Steven McMorran performs it; if you prefer to perform it different then that is absolutely fine.
 However, 100% accuracy cannot ever be ensured, but a good 90% of the content in here certainly is.

Thanks for reading guys, I hope this proves useful!

xxxxxxxxxxxxxxxxxxxxxxxxxxxxxxxxxxxxxxxxxxxxxxxxxxxxxxxxxxxxxxxxxxxxxxxxxxxxxxxxxxxxxxxxxxxxxxx
                                            T H E   E N D
xxxxxxxxxxxxxxxxxxxxxxxxxxxxxxxxxxxxxxxxxxxxxxxxxxxxxxxxxxxxxxxxxxxxxxxxxxxxxxxxxxxxxxxxxxxxxxx

TAB AND LYRICS COMMENTS:

There is no comments for the calling birds (album) chords sheet music yet. Please post one now!

© 2020 TabCrawler Online Guitar Tab and Music Lessons Archive