Airbag All Night Long (ver 3) chords

ionicons-v5-k ionicons-v5-j
a b c d e f g h i j k l m n o p q r s t u v w x y z 0-9
 
TabCrawler.ComA / Airbag / All Night Long (ver 3) log in ] [ register ]
TABCRAWLER Online Sheet Music & Lyrics Archive Member Votes: 0 / 5(0 votes)
TAB VIEWS for all night long (ver 3) chords: 57

To to be able to download PDF tabs, rate, comment & submit guitar tabs, bass tabs, keyboard tab, lyrics and drum tab files you must LOGIN TO TABCRAWLER Online Guitar Tabs & Guitar Pro, Bass Tab, Drum Tabs Archive MEMBERS ONLY AREA.
[PRINT]
Did this chords for all night long (ver 3) help you?
You must LOGIN to rate this chords.
Help us improve the tab & lyrics archive!

All Night Long (ver 3) by Airbag

corrigo este tema por ke es el unico
de airbag ke me gusta y estaba mal transcribido
AGUANTE CABEZONES !


IMPORTANTE: TODOS LOS ACORDES VAN EN QUINTAS !!!

INTRO:

e|------------------------------------------------------------------------|
B|------------------------------------------------------------------------|
G|-------3-2-1----1-2-1---------3-2-1----1-2-1---------3-2-1--------------|
D|-1-1----------4-------4-1-1----------4-------4-1-1----------------------|
A|------------------------------------------------------------------------|
E|------------------------------------------------------------------------|


      D#                 G#          C#           G#
Me escape de alguna prision y todo gira alrededor
             D#            G#         C#
cuando me canse de tu caminar tus piernas largas
        G#        A#
y algo mas para mi

CORO:
                        C#          G#
Quiero lamer tu cuerpo all night long
                      C#          G#
Quiero besar tu boca all night long

                           C#     G#
Y aunque no quiera que yo este ahi
       B                   A#
No podras no podras contra mi

INTRO:

e|------------------------------------------------------------------------|
B|------------------------------------------------------------------------|
G|-------3-2-1----1-2-1---------3-2-1----1-2-1---------3-2-1--------------|
D|-1-1----------4-------4-1-1----------4-------4-1-1----------------------|
A|------------------------------------------------------------------------|
E|------------------------------------------------------------------------|


MISMOS ACORDES Q LA PRIMERA ESTROFA

vas a notar algo dentro de mi
ya no consigo producir
vamos nena ven y calma mi ser
que tengo ganas de llegar hacia ti


CORO:
                        C#          G#
Quiero lamer tu cuerpo all night long
                      C#          G#
Quiero besar tu boca all night long

                           C#     G#
Y aunque no quiera que yo este ahi
       B                   A#
No podras no podras contra mi

SOLO

CORO:
                        C#          G#
Quiero lamer tu cuerpo all night long
                      C#          G#
Quiero besar tu boca all night long

                           C#     G#
Y aunque no quiera que yo este ahi
       B                   A#
No podras no podras contra mi


                        C#          G#
Quiero lamer tu cuerpo all night long
                      C#          G#
Quiero besar tu boca all night long

                           C#     G#
Y aunque no quiera que yo este ahi
       B                   A#
No podras no podras contra mi


INTRO:

e|------------------------------------------------------------------------|
B|------------------------------------------------------------------------|
G|-------3-2-1----1-2-1---------3-2-1----1-2-1---------3-2-1--------------|
D|-1-1----------4-------4-1-1----------4-------4-1-1----------------------|
A|------------------------------------------------------------------------|
E|------------------------------------------------------------------------|

MUCHAS GRACIAS, ESTA PERFECTA Y ESPERO KE LES SIRVA !

TAB AND LYRICS COMMENTS:

There is no comments for the all night long (ver 3) chords sheet music yet. Please post one now!

© 2020 TabCrawler Online Guitar Tab and Music Lessons Archive