El Komander Amo Todo De Tí chords

ionicons-v5-k ionicons-v5-j
a b c d e f g h i j k l m n o p q r s t u v w x y z 0-9
 
TabCrawler.ComE / El Komander / Amo Todo De Tí log in ] [ register ]
TABCRAWLER Online Sheet Music & Lyrics Archive Member Votes: 0 / 5(0 votes)
TAB VIEWS for amo todo de tí chords: 17

To to be able to download PDF tabs, rate, comment & submit guitar tabs, bass tabs, keyboard tab, lyrics and drum tab files you must LOGIN TO TABCRAWLER Online Guitar Tabs & Guitar Pro, Bass Tab, Drum Tabs Archive MEMBERS ONLY AREA.
[PRINT]
Did this chords for amo todo de tí help you?
You must LOGIN to rate this chords.
Help us improve the tab & lyrics archive!

Amo Todo De Tí by El Komander

 Primero se tokan las 4 primeras kuerdas  en el tono de RE
E--------|-------2----------------|-----------|-----------|
B--------|------------------------|-----3-----|-----------|
G--------|-------2----------------|-----------|-----------|
D--------|-------0----------------|-----------|-----------|
A--------|------------------------|-----------|-----------|
E--------|------------------------|-----------|-----------|

y despues un intro de 3 tokes

E--------|------------------------|-----------|-----------|
B--------|------------------------|-----------|-----------|
G--------|------------------------|-----------|-----------|
D--------|------------------------|-----------|-----------|
A--------|-------0---2--4---------|-----------|-----------|
E--------|------------------------|-----------|-----------|

y ya empieza en re

 D                      G
Amo el dulce aroma de tu cuerpo
  A7                    D
y amo tus labios y amo tu cintura
      D                G
amo cuando me dices te quiero
   A7                        D
y amo tu cuerpo mi amor que dulzura
     A7                       D
y amo tu sonrisa mi amor que delicia
      A7                       D
poder darte un beso con loca pasion..


     D                    A7
me vuelves loco mi amor que dulzura
    A7                    D
sentir tu cuerpo sentir tu ternura
    D                      A7
me vuelves loco mi amor con tus besos
   A7
besos traviezos
        D                 G
y no tengo duda que me enamorado
                    A7
y siempre estoi pensando en
      D
Hacerte el amor


      D                G
amo cada espacio de tu cuello
     A7                  D
y amo tus manos preciosa criatura
    D                 G
amo cuando me pides un beso
   A7                         D
cuando en silencio me das tu ternura
     A7                       D
cuando tu me abrazas y luego me besas
      A7                      D
y arañas mi espelada al hacer el amor...


D                         A7
me vuelves loco mi amor que dulzura
A7                          D
sentir tu cuerpo sentir tu ternura
D                           A7
me vuelves loco mi amor con tus besos
  A7
besos traviezos
        D                   G
y no tengo duda que me enamorado
                  A7
y siempre estoi pensando en
D
Hacerte el amor

TAB AND LYRICS COMMENTS:

There is no comments for the amo todo de tí chords sheet music yet. Please post one now!

© 2020 TabCrawler Online Guitar Tab and Music Lessons Archive