Extrechinato Y Tu Abrazado A La Tristeza chords

ionicons-v5-k ionicons-v5-j
a b c d e f g h i j k l m n o p q r s t u v w x y z 0-9
 
TabCrawler.ComE / Extrechinato Y Tu / Abrazado A La Tristeza log in ] [ register ]
TABCRAWLER Online Sheet Music & Lyrics Archive Member Votes: 0 / 5(0 votes)
TAB VIEWS for abrazado a la tristeza chords: 76

To to be able to download PDF tabs, rate, comment & submit guitar tabs, bass tabs, keyboard tab, lyrics and drum tab files you must LOGIN TO TABCRAWLER Online Guitar Tabs & Guitar Pro, Bass Tab, Drum Tabs Archive MEMBERS ONLY AREA.
[PRINT]
Did this chords for abrazado a la tristeza help you?
You must LOGIN to rate this chords.
Help us improve the tab & lyrics archive!

Abrazado A La Tristeza by Extrechinato Y Tu

Hola hermanos del Rock!!, solo quería completar esta bestial canción
de la transcripión anterior, con la letra de Fito y Robe, incluída
la de Chinato. Un saludo, al mejor grupo de Rock Donostiarra, Fusión!!!


    Am                             Am
e|------------3-----2---------2h3------------3-----2---------2h3-----|
B|------1-----------------0------------1-----------------0-----------|
G|----2-----2-----2-----2------------2-----2-----2-----2-------------|
D|-------------------------------------------------------------------|
A|--0-----0-----0-----0------------0-----0-----0-----0---------------|
E|-------------------------------------------------------------------|

    Em                             Em
e|-------------------------------------------------------------------|
B|------------0------------------------------0-----------------------|
G|------0-----------3-----0------------0-----------3-----0-----------|
D|----2-----2-----2-----2------------2-----2-----2-----2-------------|
A|-------------------------------------------------------------------|
E|--0-----0-----0-----0-------3h2--0-----0-----0-----0------2h3------|


    Cmaj7                          D
e|-------------------------------------------------------------------|
B|------------0------------------------------0-----------------------|
G|------0-----------2-----0-----0------0-----------2-----0----0------|
D|----2-----2-----2-----2-----4------4-----4-----4-----4----4--------|
A|--3-----3-----3-----3------------5-----5-----5-----5---------------|
E|-------------------------------------------------------------------|


Intro: Am - Am
       Em - Em
       Am - Am
       C  - D  - Em - Em

Am                   Am                     Em - Em
He salido a la calle abrazado a la tristeza
Am                        Am                         Em - Em
y no quiero mirar a nadie y me dio vergüenza y pena.


(Chinato) Am - Am - Em - Em - Am - Am - Em - Em
Soledad que te pegas a mi alma en la dulce soledad de este campo de otoño
no hay momentos de sosiego, rebeldía pura de amores sin amores
Ilusiones puras y puros conformismos intentando levantar el espíritu
nostálgico de querer estar contigo y nunca estarlo.

C                         D                             Em - Em
Los llantos desconsolados que estrangulan las gargantas.
C                         D                            Em - Em
Los ancianos encorvados parece que la tierra les llama.


(Chinato) Am - Am - Em - Em - Am - Am - Em - Em
Volverás de vez en cuando a estas tierras agrietadas y verás de nuevo
a quin te ama, borracho, borracho de amores y libertades
y tambin de vino por olvidarte, borracho, ... borracho.

C                       D                       Em - Em
Me da pena que se admire el valor en la batalla.
C                            D                        Em - Em
Menos mal que con los rifles no se matan las palabras.


(Chinato) C - D - Em - Em
Y si surgen saludos y palabras, tal vez, notes la dureza de mi estilo
queriendo decirte nada, y en mi soledad, solo herirme yo mismo.

Am                         Am                       Em - Em
La justicia está arrestada por orden de la avaricia.
Am                     Am                      Em - Em
El dinero que te salva es el mismo que asesina.


(Chinato) Am - Am - Em - Em - Am - Am - Em - Em
Y verás sin duda, el resurgir poderoso del guerrero sin miedo a leyes
ni a nostalgias y lo verás caer una y mil veces y levantarse de nuevo,
con la pura bandera de su raza,
Soledad de amores, triste y pura, soledad de amores y locura.

C                       D                       Em - Em
No me des más esperanza s que todo son mentiras.
C                       D                      Em - Em
Sacos llenos de agujeros para guardar alegrías.


(Chinato) C - D - Em - Em
Y verás sin duda, el resurgir poderoso del guerrero sin miedo a leyes
ni a nostalgias y lo verás caer una y mil veces y levantarse de nuevo,
con la pura bandera de su raza.

C                       D                       Em - Em
Me da pena que se admire el valor en la batalla.
C                       D                       Em - Em
Menos mal que con los rifles no se matan las palabras.


(Chinato) C - D - Em - Em
Soledad de amores, triste y pura, soledad de amores y locura.

TAB AND LYRICS COMMENTS:

There is no comments for the abrazado a la tristeza chords sheet music yet. Please post one now!

© 2020 TabCrawler Online Guitar Tab and Music Lessons Archive