Fato Alba chords

ionicons-v5-k ionicons-v5-j
a b c d e f g h i j k l m n o p q r s t u v w x y z 0-9
 
TabCrawler.ComF / Fato / Alba log in ] [ register ]
TABCRAWLER Online Sheet Music & Lyrics Archive Member Votes: 0 / 5(0 votes)
TAB VIEWS for alba chords: 26

To to be able to download PDF tabs, rate, comment & submit guitar tabs, bass tabs, keyboard tab, lyrics and drum tab files you must LOGIN TO TABCRAWLER Online Guitar Tabs & Guitar Pro, Bass Tab, Drum Tabs Archive MEMBERS ONLY AREA.
[PRINT]
Did this chords for alba help you?
You must LOGIN to rate this chords.
Help us improve the tab & lyrics archive!

Alba by Fato

                        (INTRO)

             D       F#m      G        A
         E|--------------------------------------|
         A|--------------------------------------|
Guit (1) D|--------------------------------------|
         G|--------------------------------------|
         B|---3-3-3----3-3-3-3-3-3-3----2-2-2-2--|
         e|--5-5-5-7--5-5-5-5-5-5-5-7--5-5-5-5---|

         E|--------------------------------------|
         A|--------------------------------------|
Guit (2) D|--------------------------------------|
         G|--------------------------------------|
         B|----3S4------3S4-----3S4------4S3-----|
         e|--------------------------------------|


             G        F#m      A
         E|--------------------------------------|
         A|--------------------------------------|
Guit (1) D|--------------------------------------|
         G|--------------------------------------|
         B|---3-3-3----3-3------2-2-2------------|
         e|--5-5-5-7--5-5-5-7--5-5-5-5-----------|

         E|--------------------------------------|
         A|--------------------------------------|
Guit (2) D|--------------------------------------|
         G|--------------------------------------|
         B|----3S4------3S4------4S3-------------|
         e|--------------------------------------|


D                F#m
Abre tus ojos al alba
Bm                     A
siente la vida esta aqui
G                  Em
no dejes que se te vaya
              A
por hoy se feliz

D                 F#m
Cada mañana es un canto
Bm                A
una alabanza de amor
G                Em
une tu voz y contagia
                 D
de alegria el dolor

         F#m
Pequeña mia
          Bm             A
cuanto daria por que la vida
          Em
me permitiera
          G             D
andar contigo tantos caminos


(DOMENICA)
          F#m            Bm
Ay padre mío,beso del cielo
            G
manten el vuelo
           Em            A
te llevo aqui,en mi corazón
           G
no tengas miedo

D  A


(FATO)
D                  F#m
Cada mañana es un canto
Bm                A
una alabanza de amor
G                Em
une tu voz y contagía
                 A
de alegría el dolor

D                     F#m
Abre las puertas del alma
Bm                    A
llora cuando una canción
G                   Em
hace volver los recuerdos
        D
al corazón


(DOMENICA)
F#m
Ay padre mio
        Bm               A
cuanto diera por que los años
           Em
nos permitiera
          G              D
andar contigo,tantos caminos


(FATO)
         F#m            Bm
Pequeña mia, beso del cielo
             G           Em
manten el vuelo,llevame ahi
          A
en tu corazón
            G     D   A
donde no muero


(DOMENICA)
         F#m
Ay padre mio

(FATO)
            G     D    Em   A
donde no muero
            G     D    Em
donde no muero
         A
pequeña mia
         G    D
pequeña mia


              G                     D
(recuerda mi amor que esto no es la vida
G                                  D
seria un error,siempre estaremos juntos
                 G
no en la parte terrenal
eternamente en lo espiritual
pequeña mia)

--------------------------
FATO

GRAN COMPOSITOR
GRAN MAESTRO

GRACIAS POR ESTA CANCION!

TAB AND LYRICS COMMENTS:

There is no comments for the alba chords sheet music yet. Please post one now!

© 2020 TabCrawler Online Guitar Tab and Music Lessons Archive