Eagles Please Come Home For Christmas (ver 2) chords

ionicons-v5-k ionicons-v5-j
a b c d e f g h i j k l m n o p q r s t u v w x y z 0-9
 
TabCrawler.ComE / Eagles / Please Come Home For Christmas (ver 2) log in ] [ register ]
TABCRAWLER Online Sheet Music & Lyrics Archive Member Votes: 0 / 5(0 votes)
TAB VIEWS for please come home for christmas (ver 2) chords: 361

To to be able to download PDF tabs, rate, comment & submit guitar tabs, bass tabs, keyboard tab, lyrics and drum tab files you must LOGIN TO TABCRAWLER Online Guitar Tabs & Guitar Pro, Bass Tab, Drum Tabs Archive MEMBERS ONLY AREA.
[PRINT]
Did this chords for please come home for christmas (ver 2) help you?
You must LOGIN to rate this chords.
Help us improve the tab & lyrics archive!

Please Come Home For Christmas (ver 2) by Eagles

Please Come Home For Christmas - Eagles
--------------------------------------------
Scroll to the bottom for the chord reference.


[Intro] 
e|----17------14------------|
B|--------17------14--------|
G|--------------------------|
D|--------------------------|
A|--------------------------|
E|--------------------------|

[Verse 1]
              A       Amaj7           A7
Bells will be ringing    the sad, sad news
          D                     B7/F#
Oh what a Christmas to have the blues
          A    D            A      A/G#  F#m
My baby's gone   I have no friends
           B7/F#          E    Eaug
To wish me greetings once again


[Verse 2]
               A       Amaj7       A7
Choirs will be singing     "Silent Night"
          D               B7/F#
Christmas carols by candlelight
                     A          D
Please come home for Christmas
                     A        A/G#  F#m
Please come home for Christmas
           B7/F#     E7               A     A7
If not for Christmas,   by New Year's night


[Bridge]
               D                Dm
Friends and relations, send salutations
A           E+           A    A7
Sure as the stars shine above
            D                         Dm
But this is Christmas, yes, Christmas my dear
            B7/F#                       E    Eaug
The time of year to be with the one you love


[Verse 3]
             A      Amaj7                  A7
So won't you tell me     you'll never more roam
              D                        B7/F#
Christmas and New Year's will find you home
                    A      C#7              F#m F#m/E D B7/F#
There'll be no more sorrow,    no grief and pain
            A    F#m   B7/F#  E7    A    Eaug
And I'll be happy,     happy  once again


[Guitar solo]
A  Amaj7  A7
D  B7/F#


[Outro] 
                    A      C#7              F#m F#m/E D B7
There'll be no more sorrow,    no grief and pain
             A    F#m    B7/F#     E7    A
And I'll be happy,       Christmas once again


D  D  D   A


e|----17------14------------|
B|--------17------14--------|
G|--------------------------|
D|--------------------------|
A|--------------------------|
E|--------------------------|




Chord Reference:

     A   Amaj7  A7   D   Dm  B7/F#  A/G#  F#m   E  Eaug  C#7
e|---0-----0----0----3----1----2-----0-----2----0----0----4------------|
B|---2-----2----2----2----3----4-----2-----2----0----1----6------------|
G|---2-----1----0----3----2----2-----2-----2----1----1----4------------|
D|---2-----2----2----0----0----4-----2-----4----2----2----6------------|
A|---0-----0----0----0----x----2-----0-----4----2----x----4------------|
E|---x-----x----x----x----x----2-----4-----2----0----x----x------------|

TAB AND LYRICS COMMENTS:

There is no comments for the please come home for christmas (ver 2) chords sheet music yet. Please post one now!

© 2020 TabCrawler Online Guitar Tab and Music Lessons Archive