Los Villanos Despegar chords

ionicons-v5-k ionicons-v5-j
a b c d e f g h i j k l m n o p q r s t u v w x y z 0-9
 
TabCrawler.ComL / Los Villanos / Despegar log in ] [ register ]
TABCRAWLER Online Sheet Music & Lyrics Archive Member Votes: 0 / 5(0 votes)
TAB VIEWS for despegar chords: 4

To to be able to download PDF tabs, rate, comment & submit guitar tabs, bass tabs, keyboard tab, lyrics and drum tab files you must LOGIN TO TABCRAWLER Online Guitar Tabs & Guitar Pro, Bass Tab, Drum Tabs Archive MEMBERS ONLY AREA.
[PRINT]
Did this chords for despegar help you?
You must LOGIN to rate this chords.
Help us improve the tab & lyrics archive!

Despegar by Los Villanos

INTRO: [C-G)(F-C)(C-G-F]  x2

C                  G
  Voy tratando de gambetear,
F                 G
  al fantasma del tiempo.
C                   G
  Que me engaña y me hace dudar,
F                    G
  quiere verme en el suelo.

F          C           G
Me cuesta cerrar esa puerta,
F          C           G
que no me deja avanzar
Am         F           G
y sigo mordiendo el ansuelo
Am        F   G
tratando de safar.
C       G     F       C
Y otra vez, vuelvo a caer
C           G       F
siempre me toca perder.
C          G     F          C
y una vez mas, vuelvo a largar,
C         G        F
te quiero ver despegar.

Hacen cola para verme quebrar,
y pasarme la cuenta.
Demasiado me sacaron ya,
no me quedan mas fuerzas.

Me cuesta cerrar esa puerta,
que no me deja avanzar
y sigo mordiendo el ansuelo
tratando de safar.
Y otra vez, vuelvo a caer
siempre me toca perder.
y una vez mas, vuelvo a largar,
te quiero ver despegar.

Dm                    Em
 Siempre juro que voy a cambiar,
      F               G
y me meto, hasta el cuello
Dm                       Em
 Cuando sientas que no puedo más,
       F
no te voy a arrastrar,
G
¡no quiero llevarte conmigo, no mi amor!


SOLO:


    C              G           F             G                    C
e|-------------------------------------------------------------------|-
B|-------------------------------------------------------------------|-
G|-----------------7/9-7---------7/9-9-7--------------------7/9-9----|-
D|-----7-7/10-7-10----------7-10---------10-7--------7/10-7-------10-|-
A|--10-------------------10-------------------10--10-----------------|-
E|-------------------------------------------------------------------|-
    C              G          F               G                           C
e|--------------------------------------------------8---11/12-11/12-11/12-8
B|------------------------------------------------------------------------8
G|-----------------7/9-7---------7/9-9-7--------7/9---9-------------------9
D|-----7-7/10-7-10----------7-10---------10-7------------------------------
A|--10-------------------10-------------------10---------------------------
E|-------------------------------------------------------------------------

+--------------------------------------------------------------------------
|NOTA: Esta punteo algo suena jeje cuando aparece 7/9 quiere decir q hay q
|      arrastrar [ligar] la nota desde el 7 hasta el 9..
+--------------------------------------------------------------------------

Me cuesta cerrar esa puerta,
que no me deja avanzar
y sigo mordiendo el ansuelo
tratando de safar,
tratando de safar.

(C-G)(F-C)(C-G-F)

Y otra vez, vuelvo a caer
siempre me toca perder.
y una vez más, vuelvo a largar,
te quiero ver despegar.

Y otra vez, vuelvo a caer
siempre me toca perder.
y una vez más, vuelvo a largar,
te quiero ver despegar.
C         G        F
Te quiero ver despegar.
C         G        Bb         Bb          C
Te quiero ver despegar... despegar, despegar.


--------------------------------------------------------------
Bahía Blanca

AGUANTE EL ROCANROL!!!

                                       _________Aníbal#87 rnr

TAB AND LYRICS COMMENTS:

There is no comments for the despegar chords sheet music yet. Please post one now!

© 2020 TabCrawler Online Guitar Tab and Music Lessons Archive