Los Villanos Hasta La Muerte chords

ionicons-v5-k ionicons-v5-j
a b c d e f g h i j k l m n o p q r s t u v w x y z 0-9
 
TabCrawler.ComL / Los Villanos / Hasta La Muerte log in ] [ register ]
TABCRAWLER Online Sheet Music & Lyrics Archive Member Votes: 0 / 5(0 votes)
TAB VIEWS for hasta la muerte chords: 1

To to be able to download PDF tabs, rate, comment & submit guitar tabs, bass tabs, keyboard tab, lyrics and drum tab files you must LOGIN TO TABCRAWLER Online Guitar Tabs & Guitar Pro, Bass Tab, Drum Tabs Archive MEMBERS ONLY AREA.
[PRINT]
Did this chords for hasta la muerte help you?
You must LOGIN to rate this chords.
Help us improve the tab & lyrics archive!

Hasta La Muerte by Los Villanos

INTRO:
    C       Em   Am      G    C       Em   Am      G    C
e|---------------------------------------------------------|
B|---------------------------------------------------------|
G|---------------2-2-2-2-------------------2-2-2-2---------|
D|--2-2-2-2-2--2-2-2-2-2------2-2-2-2-2--2-2-2-2-2------2--|
A|--3-3-3-3-2--2-0-0-0-0-2--2-3-3-3-3-2--2-0-0-0-0-2--2-3--|
E|----------0--0---------3--3---------0--0---------3--3----|


   (*)
e|---------------|
B|---------------|
G|---------------|
D|--0/2-0---0----|
A|--------3---3--|
E|---------------|

(*)
C                Am
  Me prometiste amor eterno, amor
C             Am         C
  pero tu lealtad se esfumo
                 Am        Dm           F  G
que fácil que te pueden olvidar como si nada.

Dijiste para siempre y te creí
no se porque tuviste que huir
no queda mas razón para seguir voy a dejarme morir


Dm              G    Dm               G
  Pero un trato echo   no puede ser desecho
Dm           Am      G    C
 te olvidaste cuando me juraste
  Am         Dm     G    C
hasta que la muerte nos separe
  Am         Dm     G    C
hasta que la muerte nos separe

Ya se muy bien que ningún ángel soy
que a veces me porte como el peor
al menos siempre fui con la verdad, y me salio tan mal!

Pero un trato echo no puede ser desecho
te olvidaste cuando me juraste
hasta que la muerte nos separe
hasta que la muerte nos separe

  (**)
e|---------------|
B|---------------|
G|---------------|
D|---------------|
A|--2/3-2-0------|
E|----------3-0--|

(**)
Em          Am
 No podia imaginar
(**)
Em               Am
 que me ibas a descartar
Dm                        G                   C
  hay heridas que pueden durar toda una eternidad.

INTRO

e|---------------------------------------------|
B|---------------------------------------------|
G|---------------------------------------------|
D|--0/2-0---------------0/2-0-----------0-0----|
A|--------3-0-0-0-3-0---------3-0-0-0-3-----3--|
E|--------------------3------------------------|

e|---------------------------------------------|
B|---------------------------------------------|
G|------9-7-5-------5-7-7---9-9-9-9-7-9-7------|
D|--5/7-------7-7-7-------7--------------------|
A|---------------------------------------------|
E|---------------------------------------------|

Pero un trato echo no puede ser desecho, no!
te olvidaste cuando me juraste
hasta que la muerte nos separe
hasta que la muerte nos separe
hasta que la muerte nos separe
hasta que la muerte nos separe

TERMINA CON UN INTRO
--------------------------------------------------------------
AGUANTE EL ROCANROL!!!!

Bahia Blanca

                                           _________Aníbal#87 rnr

TAB AND LYRICS COMMENTS:

There is no comments for the hasta la muerte chords sheet music yet. Please post one now!

© 2020 TabCrawler Online Guitar Tab and Music Lessons Archive