Los Villanos Chau Corazón chords

ionicons-v5-k ionicons-v5-j
a b c d e f g h i j k l m n o p q r s t u v w x y z 0-9
 
TabCrawler.ComL / Los Villanos / Chau Corazón log in ] [ register ]
TABCRAWLER Online Sheet Music & Lyrics Archive Member Votes: 0 / 5(0 votes)
TAB VIEWS for chau corazón chords: 8

To to be able to download PDF tabs, rate, comment & submit guitar tabs, bass tabs, keyboard tab, lyrics and drum tab files you must LOGIN TO TABCRAWLER Online Guitar Tabs & Guitar Pro, Bass Tab, Drum Tabs Archive MEMBERS ONLY AREA.
[PRINT]
Did this chords for chau corazón help you?
You must LOGIN to rate this chords.
Help us improve the tab & lyrics archive!

Chau Corazón by Los Villanos

Intro

   G      Bm     C       D        G      Bm      C       D
e|-10-8-7-8-10-10---10-8-7-8-10-10-10--10-8-7-8-10-10----10-8-7-8-7-------
B|-------------------------------------------------------------------8-8--
G|------------------------------------------------------------------------
D|------------------------------------------------------------------------
A|------------------------------------------------------------------------
E|------------------------------------------------------------------------

G           Bm
donde vas? a donde estas?
G7                  C
que te busco y no te puedo allar
Cm        G
sigo preocupandome
            D        D7
no lo puedo entender

te busque, quise hablar
me acerque y no latia mas
otra vez dejandome
sin palabras me quede

G                  Bm
chau corazon te digo adios
   C                           D
no quiero estar por siempre esperando
G                    Bm
hola mi amor, chau corazon
   C                       D
el mundo es un lugar tan extraño

y solo estoy

quien vendra, a terminar
con tantos siglos de soledad
todos lados te busque
sin personas me quede

chau corazon te digo adios
no quiero estar por siempre esperando
hola mi amor, chau corazon
el mundo es un lugar tan extraño

     C                    D
esta noche yo te vine a buscar
        Bm            Em
por que tu lugar nadie puede ocupar
Am                    D     D7
nada va a volver a ser igual

te voy a extrañar


Solo De La Armonica

   G        Bm           G7         C
e|-7-10-7---7-7-10-7--------7-10-7-7-7-7-10-8------------
B|--------------------------------------------8----------
G|-------------------------------------------------------
D|-------------------------------------------------------
A|-------------------------------------------------------
E|-------------------------------------------------------

   Cm       G              D          D7
e|-10-8------7-7/8-8-7--------12-10-------10-12-10-12-10-
B|------8-10-----------10-8---------12-13----------------
G|-------------------------------------------------------
D|-------------------------------------------------------
A|-------------------------------------------------------
E|-------------------------------------------------------

chau corazon te digo adios
no quiero estar por siempre esperando
hola mi amor, chau corazon
el mundo es un lugar tan extraño

TAB AND LYRICS COMMENTS:

There is no comments for the chau corazón chords sheet music yet. Please post one now!

© 2020 TabCrawler Online Guitar Tab and Music Lessons Archive