Los Villanos Mal De Amores (ver 2) chords

ionicons-v5-k ionicons-v5-j
a b c d e f g h i j k l m n o p q r s t u v w x y z 0-9
 
TabCrawler.ComL / Los Villanos / Mal De Amores (ver 2) log in ] [ register ]
TABCRAWLER Online Sheet Music & Lyrics Archive Member Votes: 0 / 5(0 votes)
TAB VIEWS for mal de amores (ver 2) chords: 1

To to be able to download PDF tabs, rate, comment & submit guitar tabs, bass tabs, keyboard tab, lyrics and drum tab files you must LOGIN TO TABCRAWLER Online Guitar Tabs & Guitar Pro, Bass Tab, Drum Tabs Archive MEMBERS ONLY AREA.
[PRINT]
Did this chords for mal de amores (ver 2) help you?
You must LOGIN to rate this chords.
Help us improve the tab & lyrics archive!

Mal De Amores (ver 2) by Los Villanos

INTRO: x4
e|------------------------|
B|------------------------|
G|------------------------|
D|--5-5-2-2-2--7-7--------|
A|--5-5-2-2-2--7-7--------|
E|--3-3-0-0-0--5-5--2-3-2-|


G          Em                C           Am      D       G
Me dijeron que no es fácil curarse si te pega el mal de amor
G          Em           C     Am           D     G
vuelvo a elegir a equivocarme ya no siento mas dolor
G         Em          C                  D
 te acosan, te ahogan, se aburren y te cortan
G         Em            C                  D
 se borran, que importa, pasaste a ser historia

G                     Em
Como duele enamorarse, no hay manera de escaparse
Am                       D
de que vale ilusionarse, si al final estas peor.

INTRO x2

Corazones buscan su otra parte y una razon para seguir
en donde estas que no puedo encotrarte, ya me acostumbrÚ a sufrir
te enga├▒an, te cambian, se van como si nada
quien quiere tu alma, cansada y tan gastada.

Como duele enamorarse, no hay manera de escaparse
de que vale ilusionarse, si al final estas peor.
Como duele enamorarse, no hay manera de escaparse
de que vale ilusionarse, si al final estas peor.

   G         Em   C                  D
Te pego, te pego, te pego el mal de amor
Te pego, te pego, te pego el mal de amor

INTRO x2

    G           Em       C          D
e|-----------------------------------|
B|--12-10-12-10-13-12-10-------------|
G|-----------------------12-11-12-9--|
D|-----------------------------------|
A|-----------------------------------|
E|-----------------------------------|

    G           Em       C          D            G
e|---------------------------------------------------|
B|--12-10-12-10-13-12-10----13-12-10----------10-12--|
G|-----------------------12----------12-11-12--------|
D|---------------------------------------------------|
A|---------------------------------------------------|
E|---------------------------------------------------|


Te enga├▒an, te cambian, se van como si nada
quien quiere tu alma, cansada y tan gastada.

Como duele enamorarse, no hay manera de escaparse
de que vale ilusionarse, si al final estas peor.
Como duele enamorarse, no hay manera de escaparse
de que vale ilusionarse, si al final estas peor.

Te pego, te pego el mal de amor
Te pego, te pego el mal de amor

INTRO
-----------------------------------------------------------------
AGUANTE EL ROCANROL!!!!

Bahia Blanca

                                        ___________An├Čbal#87 rnr

TAB AND LYRICS COMMENTS:

There is no comments for the mal de amores (ver 2) chords sheet music yet. Please post one now!

© 2020 TabCrawler Online Guitar Tab and Music Lessons Archive