Rafo Ráez Blas (ver 2) chords

ionicons-v5-k ionicons-v5-j
a b c d e f g h i j k l m n o p q r s t u v w x y z 0-9
 
TabCrawler.ComR / Rafo Ráez / Blas (ver 2) log in ] [ register ]
TABCRAWLER Online Sheet Music & Lyrics Archive Member Votes: 0 / 5(0 votes)
TAB VIEWS for blas (ver 2) chords: 6

To to be able to download PDF tabs, rate, comment & submit guitar tabs, bass tabs, keyboard tab, lyrics and drum tab files you must LOGIN TO TABCRAWLER Online Guitar Tabs & Guitar Pro, Bass Tab, Drum Tabs Archive MEMBERS ONLY AREA.
[PRINT]
Did this chords for blas (ver 2) help you?
You must LOGIN to rate this chords.
Help us improve the tab & lyrics archive!

Blas (ver 2) by Rafo Ráez

Intro
D*  Am*  1*
D*  Am*  1*

D*               Am*     1*
Blas no teme a la soledad      Donde va?
D*             Am*       1*
Blas se hace su felicidad      con la paz
D*                   Am*        1*
Blas se entretiene con serenidad      libertad
D*                   Am*             2*
Blas abre un libro de aventuras Blas

G*      Em*
?y a ver? Que creen hey?
G*  Em*    D** Am**  D** Am**  RE** LAm**  3*
Heroe aqui es Blas        Blas        Blas        Blas

D*              Am*     1*
Blas recorre las cavernas    del Islam
D*              Am*     1*
Blas conoce las leyendas     del Gran Kahn
D*             Am*         1*
Blas recorre la montaña Blas      Que tenaz
D*                   Am*           2*
Blas abre un libro de aventuras Blas

G*      Em*
?y a ver? Que creen hey?
G*  Em*    D** Am**  D** Am**  RE** LAm**  3*
Heroe aqui es Blas        Blas        Blas        Blas

Dsus4*   D***   Esus4   Am   Esus4   Am   MIsus4   RE
Dsus4    D      Esus4   Am   Esus4   Am   MIsus4   RE
Dsus4    D      Esus4   Am   Esus4   Am   MIsus4   RE
Dsus4    D      Esus4   Am   Esus4   Am

G       Em
?y a ver? Que creen hey?
G  Em      D** Am**  D** Am**  RE** LAm**  3*
Heroe aqui es Blas        Blas        Blas        Blas
D**              Am**
Blas no teme a la soledad
Am**           D**
Blas se hace su felicidad
D**            Am**
Blas recorre la montaña Blas
Am**                        D**
Blas abre un libro que es el Libro de Oro

Dsus4    D      Esus4   Am   Esus4   Am   MIsus4   RE
Dsus4    D      Esus4   Am   Esus4   Am

G       Em
?y a ver? Que creen hey?
G  Em
Heroe aqui
G       Em
?y a ver? Que creen hey?
G  Em      D** Am**  D** Am**  RE** LAm**  3*
Heroe aqui es Blas        Blas        Blas        Blas


D*                       Am*

e----------2--------      e---------0--------
B------3-----3---3--      B-----1-----1---1--
G----2---2-----2----      G---2---2-----2----
D--0----------------      D-2----------------
A-------------------      A------------------
E-------------------      E------------------


1*                                 2*


e---------------------------      e---------------------
B-----0-----0-----0------0--      B-----0-----0-----0---
G---2-----2------------2----      G---2-----2-----------
D--------------------0------      D---------------------
A-2-----0-------------------      A-2-----0------------
E--------------3------------      E--------------3------


G*                               Em*

e-----------------                e------------------
B-------0---------                B-------0----------
G-----2---2---2---                G-----2---2---2----
D---0-------0-----                D---0-------0------
A-----------------                A------------------
E-3---------------                E-0----------------


D**                               Am**

e---------5--------               e---------7---0----
B-----7-----7---7--               B-----0---------0--
G---7---7-----7----               G---5---5---5------
D-0----------------               D-7----------------
A------------------               A------------------
E------------------               E------------------


3*                            Dsus4*     D***      REsus4     Esus4

e------------------------     e-15---     e-14--     e--3-      e--0-
B-----7------0--7--0--7--     B-15---     B-15--     B--3-      B--0-
G---7------5----7--5--7--     G-14---     G-14--     G--2-      G--2-
D-0------7------0--7--0--     D------     D-----     D----      D--2-
A------------------------     A------     A-----     A----      A----
E------------------------     E------     E-----     E----      E----


Kualkier komentario me mandan un mail nomas, ummm saludos pa la pipol

TAB AND LYRICS COMMENTS:

There is no comments for the blas (ver 2) chords sheet music yet. Please post one now!

© 2020 TabCrawler Online Guitar Tab and Music Lessons Archive