Taylor Swift Dark Blue Tennessee (ver 3) chords

ionicons-v5-k ionicons-v5-j
a b c d e f g h i j k l m n o p q r s t u v w x y z 0-9
 
TabCrawler.ComT / Taylor Swift / Dark Blue Tennessee (ver 3) log in ] [ register ]
TABCRAWLER Online Sheet Music & Lyrics Archive Member Votes: 0 / 5(0 votes)
TAB VIEWS for dark blue tennessee (ver 3) chords: 8

To to be able to download PDF tabs, rate, comment & submit guitar tabs, bass tabs, keyboard tab, lyrics and drum tab files you must LOGIN TO TABCRAWLER Online Guitar Tabs & Guitar Pro, Bass Tab, Drum Tabs Archive MEMBERS ONLY AREA.
[PRINT]
Did this chords for dark blue tennessee (ver 3) help you?
You must LOGIN to rate this chords.
Help us improve the tab & lyrics archive!

Dark Blue Tennessee (ver 3) by Taylor Swift

Wow, I actually tabbed this myself! The plucking at the intro is so pretty...
It kind of confused me at times, so if it's wrong, please let me know!!

The strumming and chord changes are pretty difficult, but if you listen to the recording, 
you should get it! :)

This song is amazing... I really hope you guys like this tab! Rate it for me?


Intro:

    C        G        Am                F
e|---------------------------0---------------------
B|--0--1------0--1------0--1---1--0--1----1--0--1--
G|------0----------0-------------------0-----------
D|-------------------------------------------------
A|-------------------------------------------------
E|-------------------------------------------------

    C        G        Am               F
e|---------------------------0------------
B|--0--1------0--1------0--1---1--0--1----
G|------0----------0-------------------0--
D|----------------------------------------
A|----------------------------------------
E|----------------------------------------


Verse 1:

C            G        F
  He said, "I got me a nice new apartment
C        G                 F
  In the city, wouldn't you have hated that?
C             G           F
  I'm getting by with the broken heart you left me with."
C                 G             F
  He hangs up the phone and she whispers back,


Chorus: 
F             G          C               Am
  Missing you  like this   is such sweet sorrow
F              G       Am
Won't you come back to me?
F              G          C       Am
  I'll be here, today and  here tomorrow
   F         G     C
In dark blue Tennessee


    C        G        Am               F
e|---------------------------0------------
B|--0--1------0--1------0--1---1--0--1----
G|------0----------0-------------------0--
D|----------------------------------------
A|----------------------------------------
E|----------------------------------------


Verse 2:
C        G             F
  He was lying when he said he moved to L.A.
C           G             F
  He's just hiding out on the other side of town
C                      G                    F
  With his head in his hands and she's just 7 miles away
C                      G                   F
  He's staring out the window and puts her  picture down saying,


Chorus: 
F             G          C               Am
  Missing you  like this   is such sweet sorrow
F              G       Am
Won't you come back to me?
F              G          C       Am
  I'll be here, today and  here tomorrow
   F         G     C
In dark blue Tennessee


C  G  Am


Bridge:
F                              G
  She almost called him on the night that he wrote
F              C            Am        G
  These simple words on his goodbye note

Chorus: 
F             G          C               Am
  Missing you  like this   is such sweet sorrow
F              G       Am
Won't you come back to me?
F              G          C       Am
  I'll be here, today and  here tomorrow
   F         G     C
In dark blue Tennessee
   F      G        C
In dark blue Tennessee


    C        G        Am               
e|---------------------------0----------
B|--0--1------0--1------0--1---1--0--1--
G|------0----------0--------------------
D|--------------------------------------
A|--------------------------------------
E|--------------------------------------

TAB AND LYRICS COMMENTS:

There is no comments for the dark blue tennessee (ver 3) chords sheet music yet. Please post one now!

© 2020 TabCrawler Online Guitar Tab and Music Lessons Archive