Taylor Swift Sad Beautiful Tragic (ver 2) Ukulele chords

ionicons-v5-k ionicons-v5-j
a b c d e f g h i j k l m n o p q r s t u v w x y z 0-9
 
TabCrawler.ComT / Taylor Swift / Sad Beautiful Tragic (ver 2) Ukulele log in ] [ register ]
TABCRAWLER Online Sheet Music & Lyrics Archive Member Votes: 0 / 5(0 votes)
TAB VIEWS for sad beautiful tragic (ver 2) ukulele chords: 17

To to be able to download PDF tabs, rate, comment & submit guitar tabs, bass tabs, keyboard tab, lyrics and drum tab files you must LOGIN TO TABCRAWLER Online Guitar Tabs & Guitar Pro, Bass Tab, Drum Tabs Archive MEMBERS ONLY AREA.
[PRINT]
Did this chords for sad beautiful tragic (ver 2) ukulele help you?
You must LOGIN to rate this chords.
Help us improve the tab & lyrics archive!

Sad Beautiful Tragic (ver 2) Ukulele by Taylor Swift

I did this by ear so I don't think it's 100% correct but I think its really close. 
I couldn't find the ukulele tab for this anywhere.


Standard Tuning
No Capo
(* once)


INTRO: x2

A|------------------------3-2-10--3-2-10--3-2-10-3------------------------|
E|--2-3--2-3--2-3----3----------------------------------------------------|
D|------------------------------------------------------------------------|
G|-----------------2------------------------------------------------------|

VERSE 1:


G                D                 Am      C
Long handwritten note deep in your pocket

G                      D                             Am     C
Words, how little they mean when you're a little too late

G                    D                      Am        C
I stood right by the tracks, your face in a locket

     G                      D                    Am     C
Good girls, hopeful they'll be and long they will wait


CHORUS:

   G     D               Am         C
We had a beautiful magic love there

       G   D                Am       C
What a sad beautiful tragic love a-ffair

OR:

A|------------------------3-2-10--3-2-10--3-2-10-3------------------------|
E|--2-3--2-3--2-3----3----------------------------------------------------|
D|------------------------------------------------------------------------|
G|-----------------2------------------------------------------------------|

INTERLUDE:

A|------------------------3-2-10--3-2-10--3-2-10-3------------------------|
E|--2-3--2-3--2-3----3----------------------------------------------------|
D|------------------------------------------------------------------------|
G|-----------------2------------------------------------------------------|


VERSE 2:
   G        D                       Am      C
In dreams I meet you in warm conver-sation

        G              D                 Am     C
We both wake in lonely beds in different cities

    G       D                     Am           C
And time is taking its sweet time erasing you

    G                            D                          Am    C
And you've got your demons, and, darling, they all look like me



CHORUS:

   G     D               Am         C
We had a beautiful magic love there

       G   D                Am       C
What a sad beautiful tragic love a-ffair

OR:

A|------------------------3-2-10--3-2-10--3-2-10-3------------------------|
E|--2-3--2-3--2-3----3----------------------------------------------------|
D|------------------------------------------------------------------------|
G|-----------------2------------------------------------------------------|

INTERLUDE:

A|------------------------3-2-10--3-2-10--3-2-10-3------------------------|
E|--2-3--2-3--2-3----3----------------------------------------------------|
D|------------------------------------------------------------------------|
G|-----------------2------------------------------------------------------|


BRIDGE:

Am                C
Distance, timing, breakdown, fighting

G                        D
Silence, this train runs off its tracks

Am                            C
Kiss me, try to fix it, could you just try to listen?

G                 D               Am*   G*        C*     G
Hang up, give up, for the life of us we can't get back


CHORUS: x6

   G     D               Am         C
We had a beautiful magic love there

       G   D                Am       C
What a sad beautiful tragic love a-ffair

OR:

A|------------------------3-2-10--3-2-10--3-2-10-3------------------------|
E|--2-3--2-3--2-3----3----------------------------------------------------|
D|------------------------------------------------------------------------|
G|-----------------2------------------------------------------------------|

INTERLUDE:

A|------------------------3-2-10--3-2-10--3-2-10-3------------------------|
E|--2-3--2-3--2-3----3----------------------------------------------------|
D|------------------------------------------------------------------------|
G|-----------------2------------------------------------------------------|


G*










TAB AND LYRICS COMMENTS:

There is no comments for the sad beautiful tragic (ver 2) ukulele chords sheet music yet. Please post one now!

© 2020 TabCrawler Online Guitar Tab and Music Lessons Archive