Steve Vai Halo 2 Theme (ver 2) guitar tab

 
TabCrawler.ComS / Steve Vai / Halo 2 Theme (ver 2) log in ] [ register ]
TABCRAWLER Online Sheet Music & Lyrics Archive Member Votes: 0 / 5(0 votes)
TAB VIEWS for halo 2 theme (ver 2) guitar tab: 2

To to be able to download PDF tabs, rate, comment & submit guitar tabs, bass tabs, keyboard tab, lyrics and drum tab files you must LOGIN TO TABCRAWLER Online Guitar Tabs & Guitar Pro, Bass Tab, Drum Tabs Archive MEMBERS ONLY AREA.
[PRINT]
Did this guitar tab for halo 2 theme (ver 2) help you?
You must LOGIN to rate this guitar tab.
Help us improve the tab & lyrics archive!

Halo 2 Theme (ver 2) by Steve Vai TheFenderrocker's Interpretation Guitar 1 - Rhythm (EADGBe) Guitar 2 - Lead (EADGBe) Guitar 3 - Overdub (EADGBe) Legend: / = slide up = slide down (5) = natural harmonic w = whammy bar b = bend ~ = hold note, let ring r = release bend Guitar 2 e|------------------------------------------------(5)w---------------------| 
B|-------------------------------------------------------------------------|
 G|----/9------11-12/14---12-11-12-9-11---7/9~~~----------------------------|
 D|-------------------------------------------------------------------------| 
A|-------------------------------------------------------------------------|
 E|-------------------------------------------------------------------------| Guitar 1 - Figure 1 e|------------------------------------------------------------------------------------| B|------------------------------------------------------------------------------------|
 G|------------------------------------------------------------------------------------|
 D|----------9---9-------------11-------11-------12-------12-------14--------141211--|
 A|----------7---7-------------9--------9--------10-------10-------12--------12109---| 
E|----0-0-0-------0-0-0-0-0-0-------------0-0-0-------------0---0---------------------| Guitar 1 - Figure 2 e|------------------------------------------------------------------------------------| 
B|------------------------------------------------------------------------------------|
 G|------------------------------------------------------------------------------------|
 D|----------9--------9-------11-------11-------12/----------------14--------141211--| 
A|----------7--------7-------9--------9--------10/----------------12--------12109---| 
E|----0---0------------0---0-------------0-0-0--------------0---0---------------------| Guitar 1 plays Figure 1 Guitar 2 - Figure 3 e|------------------------------------------------------------------------| B|----15b17~~----------17b19~~----------18b20~~----------20b22~~----------|
 G|------------------------------------------------------------------------|
 D|------------------------------------------------------------------------| 
A|------------------------------------------------------------------------| 
E|------------------------------------------------------------------------| Guitar 2 e|-------------------------------------------------------------------------------|
 B|----20b22-20-19-17---15-17-----------17p15-12~~--------------------------------| 
G|---------------------------------------------------------14p12-----------------|
 D|---------------------------------------------------------------14~~------------|
 A|-------------------------------------------------------------------------------|
 E|-------------------------------------------------------------------------------| | |Guitar 1 - Figure 4 e|-------------------------------------------------------------------------------| 
B|-------------------------------------------------------------------------------| 
G|-------------------------------------------------------------------------------| 
D|------9--9-9----12--12-12----14--14-14--12--12119-----9--9-9----12--12-12----|
 A|------7--7-7----10--10-10----12--12-12--10--109-7-----7--7-7----10--10-10----|
 E|----0---------0--9---9--9--0-11--11-11----------------0---------0--9---9--9----| Guitar 2 e|------------------------------|
 B|----/15-17~~~-----------------|
 G|------------------------------| 
D|------------------------------|
 A|------------------------------| 
E|------------------------------| | |Guitar 1 e|------------------------------| 
B|------------------------------|
 G|------------------------------|
 D|------14--14-14--12--12119--| 
A|------12--12-12--10--109-7--|
 E|----0-11--11-11---------------| Guitar 1 plays Figure 1 under Chorus Guitar 2 - Figure 5 (Chorus) e|--------------------------------------------------9------------------------------| 
B|----12----12-14-15----12-15-14-12---------10---10---12-10---12----12-14-15b17----|
 G|----------------------------------14-9-------9------------9----------------------|
 D|---------------------------------------------------------------------------------|
 A|---------------------------------------------------------------------------------|
 E|---------------------------------------------------------------------------------| e|----12----------------12-------------------|
 B|-------15-14-15-14-12----15-14-12-14-15----|
 G|-------------------------------------------| 
D|-------------------------------------------| 
A|-------------------------------------------| 
E|-------------------------------------------| Guitar 2 e|----14-------17---17-17--17-14-------17--------12-14-15/17-17~~----|
 B|-------15----------------------15----------------------------------| 
G|----------16----------------------16-------------------------------| D|-------------------------------------------------------------------|
 A|-------------------------------------------------------------------| 
E|-------------------------------------------------------------------| | |Guitar 1 - Figure 6 e|-------------------------------------------------------------------| 
B|-------------------------------------------------------------------| 
G|-------------------------------------------------------------------| 
D|----------9-------------11------------12-------------14------------| 
A|----------7-------------9-------------10-------------12------------| 
E|----0-0-0----------------------------------------------------------| Guitar 2 e|-----------------------------------------------------------19~~----|
 B|----15-17-19--------17-19-20-19-17-19-17-15-14---15---17-----------|
 G|-------------------------------------------------------------------| 
D|-------------------------------------------------------------------| 
A|-------------------------------------------------------------------| 
E|-------------------------------------------------------------------| | |Guitar 1 e|-------------------------------------------------------------------| 
B|-------------------------------------------------------------------| 
G|-------------------------------------------------------------------| 
D|----------9-------------11------------12-------------14------------| 
A|----------7-------------9-------------10-------------12------------|
 E|----0-0-0----------------------------------------------------------| Guitar 2 e|----19-19----19-19b21r19-17-15------------------15-14-15-17-15-----| 
B|-------------------------------------------------------------------| 
G|-------------------------------------------------------------------| 
D|-------------------------------------------------------------------| 
A|-------------------------------------------------------------------| 
E|-------------------------------------------------------------------| | |Guitar 1 e|-------------------------------------------------------------------|
 B|-------------------------------------------------------------------| 
G|-------------------------------------------------------------------| 
D|----------9-------------11------------12-------------14------------|
 A|----------7-------------9-------------10-------------12------------| 
E|----0-0-0----------------------------------------------------------| Guitar 2 - Figure 7 e|-------15----13----15----13----15----13----15----13----15-17-18-20-18-17----|
 B|----15----13----15----13----15----13----15----13----15----------------------| 
G|----------------------------------------------------------------------------| 
D|----------------------------------------------------------------------------|
 A|----------------------------------------------------------------------------|
 E|----------------------------------------------------------------------------| | |Guitar 1 e|----------------------------------------------------------------------------|
 B|----------------------------------------------------------------------------|
 G|----------------------------------------------------------------------------| 
D|----------5~~---------------------------------------------------------------| 
A|----------5~~---------------------------------------------------------------| 
E|----------3~~---------------------------------------------------------------| Guitar 2 - Figure 8 e|-------17----15----17----15----17----15----17----15----17--------------------|
 B|----17----15----17----15----17----15----17----15----17----20-19-20-19-17-15--| 
G|-----------------------------------------------------------------------------| 
D|-----------------------------------------------------------------------------| 
A|-----------------------------------------------------------------------------|
 E|-----------------------------------------------------------------------------| | |Guitar 1 e|-----------------------------------------------------------------------------|
 B|-----------------------------------------------------------------------------|
 G|-----------------------------------------------------------------------------|
 D|----------7~~----------------------------------------------------------------|
 A|----------7~~----------------------------------------------------------------|
 E|----------5~~----------------------------------------------------------------| Guitar 1 plays Figure 4 Guitar 1 plays Figure 1 Guitar 2 plays Figure 7 & 8 Guitar 1 plays Figure 1 under Solo Guitar 2 - Solo w/ wah e|------------------------------------------------------------------------|
 B|------------------------------------------------------------------------| 
G|----14b16~~----14b16r--14b16~~--------14b16~~------------14b16~~--------|
 D|------------------------------------------------------------------------|
 A|------------------------------------------------------------------------|
 E|------------------------------------------------------------------------| e|------------------------------------------------------------------------| 
B|------------------------------------------------------------------------| 
G|----/9~~-------/11~~-------/12~~-------/14~~-----14p12-11-12p11-9--9----| 
D|------------------------------------------------------------------------|
 A|------------------------------------------------------------------------| 
E|------------------------------------------------------------------------| Guitar 1 plays Figure 4 Guitar 2 e|----------------------------------------------------------------------------------| 
B|----15b17~~----------17b19r~~----17b19r-17-15----18b19r---17-15-15b17-15b17r~~----|
 G|----------------------------------------------------------------------------------|
 D|----------------------------------------------------------------------------------| 
A|----------------------------------------------------------------------------------|
 E|----------------------------------------------------------------------------------| Guitar 3 plays Figure 5 (Chorus) Guitar 1 plays Figure 1 under Guitar 3 Guitar 2 (Under Guitar 1 & 3) e|----------------------------------------------------------------------------------| 
B|-----------------------------------------15b17----15-12---------------------------| 
G|----/12----------------------------------------------------12~~~------------------| 
D|---------14-12-14~~---------------------------------------------------------------| 
A|----------------------------------------------------------------------------------| 
E|----------------------------------------------------------------------------------| e|----------------------------------------------------------------------------------| 
B|--------/8--------------/8----/10----8-----------------/8----/10----/12----/14----| 
G|-------------9~~--------------------------/9~~------------------------------------| 
D|----------------------------------------------------------------------------------| 
A|----------------------------------------------------------------------------------| 
E|----------------------------------------------------------------------------------| Guitar 2 - Solo 2 w/ wah e|--------------------------17b19r--15b17-------------------------------------------| 
B|----/15~~-------------------------------------------------------------------------|
 G|----------------------------------------------------------------------------------| 
D|---------------------------------------------------------------7/9--9~~-----------|
 A|--------------------------------------------------------5h7-----------------------|
 E|----------------------------------------------------------------------------------| | |Guitar 1 e|----------------------------------------------------------------------------------| 
B|----------------------------------------------------------------------------------|
 G|----------------------------------------------------------------------------------|
 D|-----5~~---------------------------------------7~~--------------------------------| 
A|-----5~~---------------------------------------7~~--------------------------------| 
E|-----3~~---------------------------------------5~~--------------------------------| Guitar 1 plays Figure 4 under Guitar 2 Guitar 2 e|----------------------------------/10h12p10-7-----/13h15p13-10------/15h17p15-12------|
 B|--------------------------------------------------------------------------------------|
 G|----------------------------------------------9----------------12----------------14---| 
D|----14b16r----14b16-14b16~------------------------------------------------------------| 
A|--------------------------------------------------------------------------------------| 
E|--------------------------------------------------------------------------------------| Guitar 1 plays Figure 1 under Guitar 2 Guitar 2 e|----15b17--15-14------------------------------------------------------------------| 
B|------------------------13b15~~-------------------13b15~~-------------------------| 
G|-----------------------------------14p12---------------------14p12----------------|
 D|-----------------------------------------14------------------------14--14~~-------| 
A|----------------------------------------------------------------------------------|
 E|----------------------------------------------------------------------------------| Guitar 2 e|----------------------------------------------------------------------------------| 
B|----/17~~-------17--19--20--19--17--17h19-15-12---12~~----------------------------|
 G|----------------------------------------------------------------14p12-14/16-14----| 
D|----------------------------------------------------------------------------------| A|----------------------------------------------------------------------------------| 
E|----------------------------------------------------------------------------------| | |Guitar 1 e|----------------------------------------------------------------------------------|
 B|----------------------------------------------------------------------------------|
 G|----------------------------------------------------------------------------------|
 D|-----5--------------------------------------------7-------------------------------| 
A|-----5--------------------------------------------7-------------------------------| 
E|-----3--------------------------------------------5-------------------------------| Guitar 1 plays Figure 1 Guitar 2 e|----------------------------------------------------------------------------------| 
B|----------------------------------------15h17-17-17b19-17b19-17b19-17b19~~--------| 
G|----14~~------12--129~~----------------------------------------------------------| 
D|----------------------------------------------------------------------------------| 
A|----------------------------------------------------------------------------------| 
E|----------------------------------------------------------------------------------| e|-------------------------------------------|
 B|----17b19--17-15----17-15----/17-17~~------|
 G|-----------------16-------16---------------|
 D|-------------------------------------------| 
A|-------------------------------------------| 
E|-------------------------------------------| e|---------------------------------------------------------------------------------|
 B|---------------------------------------------------------------------------------|
 G|----------14h16h19---------14h16h19---------14h16p14-----------------------------|
 D|----14h17------------14h17------------14h17----------17p14-----------------------|
 A|-----------------------------------------------------------12-14~~---------------|
 E|---------------------------------------------------------------------------------| e|------------------------------------------------------------------| B|----19~~------------------------------------19b21~~---------------|
 G|------------------------------------------------------------------|
 D|------------------------------------------------------------------|
 A|------------------------------------------------------------------| 
E|------------------------------------------------------------------| Guitar 2 - Outro e|--------------------------------------------------------------------------------|| 
B|--------------------------------------------------------------------------------|| 
G|--------------------------------------------------------------------------------|| 
D|--------------------------------------------------------------------14/17------|| 
A|--------------------------------------------------------------------------------|| 
E|----7/10/12/15/1714~~-----------------------------10-/12~~---------------------||

TAB AND LYRICS COMMENTS:

There is no comments for the halo 2 theme (ver 2) guitar tab sheet music yet. Please post one now!

© 2019 TabCrawler Online Guitar Tab and Music Lessons Archive