Andrew Bird Pulaski At Night (ver 3) chords

ionicons-v5-k ionicons-v5-j
a b c d e f g h i j k l m n o p q r s t u v w x y z 0-9
 
TabCrawler.ComA / Andrew Bird / Pulaski At Night (ver 3) log in ] [ register ]
TABCRAWLER Online Sheet Music & Lyrics Archive Member Votes: 0 / 5(0 votes)
TAB VIEWS for pulaski at night (ver 3) chords: 27

To to be able to download PDF tabs, rate, comment & submit guitar tabs, bass tabs, keyboard tab, lyrics and drum tab files you must LOGIN TO TABCRAWLER Online Guitar Tabs & Guitar Pro, Bass Tab, Drum Tabs Archive MEMBERS ONLY AREA.
[PRINT]
Did this chords for pulaski at night (ver 3) help you?
You must LOGIN to rate this chords.
Help us improve the tab & lyrics archive!

Pulaski At Night (ver 3) by Andrew Bird

After learning this song by ear I checked tabs online to figure out if I was correct 
or not and quickly learned that the tabs were horrendously inaccurate. Pulaski at 
Night is a beautiful and easy song to play, and I hope you enjoy it. As the song is 
originally played by looping several different violin parts, my tab does not include 
all of the layers. I put the chords and the important violin parts on this 
tab, but there are several other background sections that I did not include for ease 
of play.
 
This is my first tab, so if you have any questions or recommendations about the music you can email me at 
[email protected]


INTRO
e|---------------------------------------------------------------------------|
B|---------------------------------------------------------------------------|
G|2--24--40--05-57542--24--40--05-5754---------------------------------------|
D|------------------0--00--02--25-5555---------------------------------------|
A|---------------------------------------------------------------------------|
E|---------------------------------------------------------------------------|

VIOLIN SOLO (2 Times Through)
e|0-3-5-7-10-7-5-3-0-7-5--3-0-7-5--3-2-3-2--0-------0-3-5-7-10---------------|
B|--------------------------------------------3-1-0--------------------------|
G|---------------------------------------------------------------------------|
D|---------------------------------------------------------------------------|
A|---------------------------------------------------------------------------|
E|---------------------------------------------------------------------------|

Intro
(Intro continues into song)
Am          D          G           C
Half empty, half full, cup runneth over
Am               D             G              C
Horns of plenty, coffers full, we’re starting over
Am  D  G  C         Am  D  G  C
{Violin Solo}
Am          D          G           C
Half empty, half full, cup runneth over
Am               D             G              C
Horns of plenty, coffers full, we’re starting over
Am            D      G                C
I write you a story, but it loses its thread
Am            D                          G               C
And all of my witnesses keep turning up, keep turning up dead
Am            D        G             C
I paint you a picture, of Pulaski at night
Am           D                     G           C
Come back to Chicago, the city of, the city of light

Am           D
Come back to Chicago
Am  D  G  C         Am  D  G  C
(violin solo with chords in background)
Am               D       G                    C
Oooooooooooooooooohhhhh, oooohhhhhh, starting over
Am               D       G                    C
Oooooooooooooooooohhhhh, oooohhhhhh, starting over
Am D G C
Am            D        G                  C
I paint you a picture, but it never looks right
Am                  D                           G               C
Cause I fill in the shadows, and block out the, I block out the light
Am           D         G                  C
I send you a postcard, it says Pulaski at night
Am             D                     G           C
Greetings from Chicago, the city of, the city of light
Am           D                     G           C
Come back to Chicago, the city of, the city of light
Am           D
Come back to Chicago
Am  D  G  C         Am  D  G  C
{Violin Solo}
Am               D       G                    C
Oooooooooooooooooohhhhh, oooohhhhhh, starting over
Am               D       G                    C
Oooooooooooooooooohhhhh, oooohhhhhh, starting over
Am               D       G                    C
Oooooooooooooooooohhhhh, oooohhhhhh, starting over



TAB AND LYRICS COMMENTS:

There is no comments for the pulaski at night (ver 3) chords sheet music yet. Please post one now!

© 2020 TabCrawler Online Guitar Tab and Music Lessons Archive