Billy Joel Wheres The Orchestra (ver 2) Ukulele chords

 
TabCrawler.ComB / Billy Joel / Wheres The Orchestra (ver 2) Ukulele log in ] [ register ]
TABCRAWLER Online Sheet Music & Lyrics Archive Member Votes: 0 / 5(0 votes)
TAB VIEWS for wheres the orchestra (ver 2) ukulele chords: 9

To to be able to download PDF tabs, rate, comment & submit guitar tabs, bass tabs, keyboard tab, lyrics and drum tab files you must LOGIN TO TABCRAWLER Online Guitar Tabs & Guitar Pro, Bass Tab, Drum Tabs Archive MEMBERS ONLY AREA.
[PRINT]
Did this chords for wheres the orchestra (ver 2) ukulele help you?
You must LOGIN to rate this chords.
Help us improve the tab & lyrics archive!

Wheres The Orchestra (ver 2) Ukulele by Billy Joel

---------------------------------------------------------------------------
                Where's the Orchestra? - Billy Joel
---------------------------------------------------------------------------
Tabbed by: maguri
Tuning: soprano C

Billy Joel
Where's the Orchestra? (1982)
(Billy Joel)

From: "The Nylon Curtain"

---------------------------------------------------------------------------
INTRO
  Eb               Bb               Cm                       Ab
  1 + 2 + 3 + 4 +  1 + 2 + 3 + 4 +  1 + 2 + 3 + 4 +  1 + 2 + 3 + 4 +
A|6---5-3-----3---|5---------------|3---------------|--------3-------|
E|3-------6-------|6---------------|3---6-4-3-------|3-------4-------|
C|3---------------|5---------------|3---------------|3-------3-------|
g|3---------------|7---------------|5---------------|--------5-------|
  G                Gaug
  1 + 2 + 3 + 4 +  1 + 2 + 3 + 4 +  
A|2---2---2---2---|2---2---2---2---|
E|3---3---3---3---|3---3---3---3---|
C|2---2---2---2---|3---3---3---3---|
g|0---0---0---0---|0---0---0---0---|

---------------------------------------------------------------------------
CHORDS
       g-C-E-A
Cm7    5-3-6-3
Cm7    5-3-5-3
Bbadd9 5-5-6-5 
Fmaj7  5-5-5-7
Eb     0-3-3-1
Ebmaj7 0-2-3-1
Dm7-5  1-2-1-3
Ebdim7 2-3-2-3
A7sus4 0-2-0-0
A7     0-1-0-0

---------------------------------------------------------------------------

INTRO
| Eb | Bb | Cm | Cm Ab | G | [ Gaug | ]


VERSE
Gaug        C
Where's the orchestra?
Cm             Cm7      Cm6  G  
Wasn't this supposed to be a musical?
Bb6      Gaug    C
Here I am in the balcony
Cmaj7              Gaug              Gm7        Bbadd9
How the hell could I have missed the overture?
  Fmaj7    D7
I like the scenery
Dm7                Fm         Gaug
Even though I have absolutely no


VERSE
 C
Idea at all
Cm            Cm7     Cm6      G  
What is being said despite the dialogue
Bb6 Gaug    C
There's the leading man
    Cmaj7          Gaug           Gm7        Bbadd9
The movie star who never faced an audience
Fmaj7       D7
Where's the orchestra?


MIDDLE 8
Dm7
After all
        Ab     Bb Eb            Ebmaj7
This is my big  night on the town
   Cm7                 Gm
My introduction to the theatre crowd
    Ab                                Dm7-5
I assumed that the show would have a song
         Gaug
So I was wrong


VERSE (variation)
           C
At least I understand
Cm          Cm7 Cm6      G  
All the innuendo and the irony
Bb6  Gaug   C
And I     appreciate
    Cmaj7            Gaug       Gm7              Bbadd9
The roles the actors played, the point the author made


CODA
    Fmaj7     D7
And after the closing lines
Ebdim7 C        A7sus4     A7
  And after the curtain calls
    Bb              F
The curtain falls
   Fm               G7              [ C ]
On empty chairs ...     where's the orchestra?


OUTRO
| C | Gmaj7 | C | Gmaj7 |
| C | Gmaj7 | C | Gmaj7 |
[melody: Allentown]

(repeat and fade)



TAB AND LYRICS COMMENTS:

There is no comments for the wheres the orchestra (ver 2) ukulele chords sheet music yet. Please post one now!

© 2019 TabCrawler Online Guitar Tab and Music Lessons Archive