One Direction 18 (ver 6) chords

 
TabCrawler.ComO / One Direction / 18 (ver 6) log in ] [ register ]
TABCRAWLER Online Sheet Music & Lyrics Archive Member Votes: 0 / 5(0 votes)
TAB VIEWS for 18 (ver 6) chords: 40

To to be able to download PDF tabs, rate, comment & submit guitar tabs, bass tabs, keyboard tab, lyrics and drum tab files you must LOGIN TO TABCRAWLER Online Guitar Tabs & Guitar Pro, Bass Tab, Drum Tabs Archive MEMBERS ONLY AREA.
[PRINT]
Did this chords for 18 (ver 6) help you?
You must LOGIN to rate this chords.
Help us improve the tab & lyrics archive!

18 (ver 6) by One Direction

-------------------------------------------------------------------------------
                           18 - One Direction
-------------------------------------------------------------------------------
Tabbed by: Amanda Yeo 

https://www.youtube.com/watch?v=ISPpyhNdDBg (Original Tutorial)

Tuning: EADGBE

Intro & Verse 1

e|------------------------------------------------------------------------------|
B|-0-----0-----------0-----0-----------0-----0-----------0-----0----------------|
G|-0-----0---2-------0-----0---2-------0-----0---2-------0-----0---2------------|
D|------------------------------------------------------------------------------|
A|------------------------------------------------------------------------------|
E|-3-3-3-3-3-3-3-3---3-3-3-3-3-3-3-3---0-0-0-0-0-0-0-0---0-0-0-0-0-0-0-0--------|

e|------------------------------------------------------------------------------|
B|-0-----0-----------0-----0-----------0-----0-----------0-----0----------------|
G|-0-----0---2-------0-----0---2-------0-----0---2-------0-----0---2------------|
D|------------------------------------------------------------------------------|
A|-3-3-3-3-3-3-3-3---3-3-3-3-3-3-3-3--------------------------------------------| 
E|-------------------------------------3-3-3-3-3-3-3-3---3-3-3-3-3-3-3-3--------| (repeat 3 times) 



Pre chorus: 

D                C
So kiss me where I lay down

D                C
My hands pressed to your cheeks

D                C
A long way from the playground



Chorus: 

G                Cadd9             Em7      Dsus2
I have loved you since we were 18

G                Cadd9                    Em7      Dsus2
Long before we both thought the same thing

Dsus2                           G 
To be loved and to be in love

G                  Cadd9          Em7               Dsus2 
All I could do is say that these arms were made for holding you

G       Cadd9          Em7         Dsus2 
I wanna love like you made me feel when we were 18


e|------------------------------------------------------------------------------|
B|-0-----0-----------0-----0-----------0-----0-----------0-----0----------------|
G|-0-----0---2-------0-----0---2-------0-----0---2-------0-----0---2------------|
D|------------------------------------------------------------------------------|
A|------------------------------------------------------------------------------|
E|-3-3-3-3-3-3-3-3---3-3-3-3-3-3-3-3---3-3-3-3-3-3-3-3---3-3-3-3-3-3-3-3--------|



Verse 2: 

e|------------------------------------------------------------------------------|
B|-0-----0-----------0-----0-----------0-----0-----------0-----0----------------|
G|-0-----0---2-------0-----0---2-------0-----0---2-------0-----0---2------------|
D|------------------------------------------------------------------------------|
A|------------------------------------------------------------------------------|
E|-3-3-3-3-3-3-3-3---3-3-3-3-3-3-3-3---0-0-0-0-0-0-0-0---0-0-0-0-0-0-0-0--------|

e|------------------------------------------------------------------------------|
B|-0-----0-----------0-----0-----------0-----0-----------0-----0----------------|
G|-0-----0---2-------0-----0---2-------0-----0---2-------0-----0---2------------|
D|------------------------------------------------------------------------------|
A|-3-3-3-3-3-3-3-3---3-3-3-3-3-3-3-3--------------------------------------------| 
E|-------------------------------------3-3-3-3-3-3-3-3---3-3-3-3-3-3-3-3--------|  (repeat 2 times) 



2nd Pre chorus: 

D                C
So kiss me where I lay down

D                C
My hands pressed to your cheeks

D                C
A long way from the playground



2nd Chorus: 

G                Cadd9             Em7      Dsus2
I have loved you since we were 18

G                Cadd9                    Em7      Dsus2
Long before we both thought the same thing

Dsus2                           G 
To be loved and to be in love

G                  Cadd9          Em7               Dsus2 
All I could do is say that these arms were made for holding you

G       Cadd9          Em7         Dsus2 
I wanna love like you made me feel when we were 18

Em7              G      Cadd9
When we were 18

Em7       Dsus2           G
Oh, Lord, when we were 18



Bridge 

G                C
So kiss me where I lay down

G                C
My hands pressed to your cheeks

G                C
A long way from the playground



Outro: 

(one strum for each chord) 

G                Cadd9             Em7      Dsus2  
I have loved you since we were 18

G                Cadd9                    Em7     
Long before we both thought the same thing

Dsus2                           
To be loved and to be in love

G               Cadd9                Em7                Dsus2
And all I could do is say that these arms were made for holding you

G       Cadd9         Em7          Dsus2
I wanna love like you made me feel when we were 18

G       Cadd9         Em7          Dsus2
I wanna love like you made me feel when we were 18

G       Cadd9         Em7          D            G
I wanna love like you made me feel when we were 18




TAB AND LYRICS COMMENTS:

There is no comments for the 18 (ver 6) chords sheet music yet. Please post one now!

© 2020 TabCrawler Online Guitar Tab and Music Lessons Archive