Misc Traditional Amazing Grace (ver 3) Ukulele chords

 
TabCrawler.ComM / Misc Traditional / Amazing Grace (ver 3) Ukulele log in ] [ register ]
TABCRAWLER Online Sheet Music & Lyrics Archive Member Votes: 0 / 5(0 votes)
TAB VIEWS for amazing grace (ver 3) ukulele chords: 50

To to be able to download PDF tabs, rate, comment & submit guitar tabs, bass tabs, keyboard tab, lyrics and drum tab files you must LOGIN TO TABCRAWLER Online Guitar Tabs & Guitar Pro, Bass Tab, Drum Tabs Archive MEMBERS ONLY AREA.
[PRINT]
Did this chords for amazing grace (ver 3) ukulele help you?
You must LOGIN to rate this chords.
Help us improve the tab & lyrics archive!

Amazing Grace (ver 3) Ukulele by Misc Traditional

-------------------------------------------------------------------------------
                             Amazing Grace - Ukulele Tab
-------------------------------------------------------------------------------
Tabbed by: Michael Licciardi
E-mail: [email protected]

Tuning:

A|---3-(3)-5/753-7-5-3-0---------3-5/753-7-5-10---|
E|-0--------0----------1-1---0-(0)---0------------7---|
C|---0-(0)-------------------------0--------------5---|
G|-0---------------0-0-2-2---0-(0)-----------0-0--0---|


A|-7-10-7-10p7-------3----3-(3)-5/753-7--2-3---|
E|-8--8-0--0---8-5-5----0-------0-------7--------|
C|-------------7-5-5-4----0-(0)---------5--2-0---|
G|----9-----------------0---------------7--------|



************************************

| /   slide up
|    slide down
| p   pull-off

************************************

TAB AND LYRICS COMMENTS:

There is no comments for the amazing grace (ver 3) ukulele chords sheet music yet. Please post one now!

© 2019 TabCrawler Online Guitar Tab and Music Lessons Archive