Phillip Phillips Home (ver 9) chords

ionicons-v5-k ionicons-v5-j
a b c d e f g h i j k l m n o p q r s t u v w x y z 0-9
 
TabCrawler.ComP / Phillip Phillips / Home (ver 9) log in ] [ register ]
TABCRAWLER Online Sheet Music & Lyrics Archive Member Votes: 0 / 5(0 votes)
TAB VIEWS for home (ver 9) chords: 24

To to be able to download PDF tabs, rate, comment & submit guitar tabs, bass tabs, keyboard tab, lyrics and drum tab files you must LOGIN TO TABCRAWLER Online Guitar Tabs & Guitar Pro, Bass Tab, Drum Tabs Archive MEMBERS ONLY AREA.
[PRINT]
Did this chords for home (ver 9) help you?
You must LOGIN to rate this chords.
Help us improve the tab & lyrics archive!

Home (ver 9) by Phillip Phillips

HOME by PHILIP PHILLIPS

Here is a video of Phillip Phillips playing the song for reference 
https://www.youtube.com/watch?v=MdIgWqSpEnQ

Intro: C Csus4  C Csus4

VERSE 1

C    Csus4           C    Csus4
Hold on, to me as we go
      C  Csus4                   C     Csus4
As we roll down this unfamiliar road
                  Am  F                  C      Csus4
And although this wave   is stringing us along

CHORUS

e|-------------------------0------|
B|-------------------------1------|
G|-------------------------2------|
D|-------------------------2------|
A|----3----2-----0------0--0------|
E|-------------------3------------|
      C   G/B    Am  G  Am
Just know you’re not alone

                  e|--------------------------0------|
                  B|--------------------------1------|
                  G|--------------------------0------|
                  D|--3---2----0--------------2------|
                  A|-----------------------3--3------|
                  E|-------------------3-------------|
                     F    Am   Dm     G    C
Because I’m going to make this place your home


VERSE 2

C       Csus4             C        Csus4
Settle down, it’ll all be clear
C                       Csus4                     C    Csus4
Don’t pay a mind to the demons they fill you with fear
    Am                         F
The trouble it might drag you down
           C                       G
If you get lost, you can always be found
 
CHORUS

e|-------------------------0------|
B|-------------------------1------|
G|-------------------------2------|
D|-------------------------2------|
A|----3----2-----0------0--0------|
E|-------------------3------------|
      C   G/B    Am  G  Am
Just know you’re not alone

                  e|--------------------------0------|
                  B|--------------------------1------|
                  G|--------------------------0------|
                  D|--3---2----0--------------2------|
                  A|-----------------------3--3------|
                  E|-------------------3-------------|
                     F    Am   Dm     G    C
Because I’m going to make this place your home

INSTRUMENTAL

F    C      F     G    F    C   G   G
Oh         Oh         Oh                     [3x]

VERSE 3

C       Csus4             C        Csus4
Settle down, it’ll all be clear
C                       Csus4                     C    Csus4
Don’t pay a mind to the demons they fill you with fear
    Am                        F
The trouble it might drag you down
           C                       G
If you get lost, you can always be found
 
CHORUS

e|-------------------------0------|
B|-------------------------1------|
G|-------------------------2------|
D|-------------------------2------|
A|----3----2-----0------0--0------|
E|-------------------3------------|
      C   G/B    Am  G  Am
Just know you’re not alone

                  e|--------------------------0------|
                  B|--------------------------1------|
                  G|--------------------------0------|
                  D|--3---2----0--------------2------|
                  A|-----------------------3--3------|
                  E|-------------------3-------------|
                     F    Am   Dm     G    C
Because I’m going to make this place your home


BRIDGE

F    C      F     G    F    C   G   
Oh         Oh         Oh                     [4x]

TAB AND LYRICS COMMENTS:

There is no comments for the home (ver 9) chords sheet music yet. Please post one now!

© 2020 TabCrawler Online Guitar Tab and Music Lessons Archive